Oops, an error
Loading. Please wait.

Jamás Perdere La Fé tab

93 views 1 this week
no commentswrite comment
1 2 3 4 5
3 more votes to show rating
add to favorites
×
Save as Personal and add changes to this tab that will be seen only by you. Learn more ›
×
You can save this tab as Personal to edit and correct it or add notes. All changes will be seen only by you. Learn more »
launch autoscroll
font size
0
reset
how to read this tab
guitar tuner
edit
Autoscroll
slow
fast
+/-
esc
set tempo
stop
 uTA StE tEMa d lOs 'nA q hAcER' s d lA cSm!
 wENa lEtRa, wuEN sOnIdO, pArA q mAs
 wENa iNfLueNcIa!!!


 Creo en cosas que no puedo ver
 Un mundo entre líneas que jamas comprenderé
 Y aunque no hay pruebas suficientes o yo no las sé
 jamas perderé la fe

   B5

                 G5      A5     B5
 e|--------------------------------------------|
 B|--------------------------------------------|
 G|--------------------------------------------|
 D|-2p4-2--0p2-0-------------------------------|
 A|---------------4p5-4-2--4p5-4-2--5-2~-------|
 E|--------------------------------------------|

           /A/   G5     A5     B5
 e|--------------------------------------------|
 B|--------------------------------------------|
 G|--------------------------------------------|
 D|-2p4-2--0p2-0-------------------------------|
 A|---------------4p5-4-2--4p5-4-2--0-2~-------|
 E|--------------------------------------------|

   B5
 e|--------------------------------------------|
 B|--------------------------------------------|
 G|--------------------------------------------|
 D|-------------2------------------------------|
 A|-0--2--4--0-----5--4--0--2~-----------------|
 E|--------------------------------------------|

  B                A              Em            G
  Detrás de esa pared, bajo un cielo de materialismo
  B                A              Em            G
  existe un ejército de extraños que vienen por mí
  B                A              Em            G
  Y se han disfrazado de profetas de algún nuevo abismo
 e|------------------------------------2-------------|
 B|-----2---------2----------2-----------2-----------|
 G|-------4---------4----------4---------------------|
 D|---4---------4----------4---------4---------------|
 A|-2---------0--------------------------------------|
 E|----------------------0---------3-----------------|

  B                A          Em     G
  que llaman globalización y porvenir
 e|------------------------------------2-------------|
 B|-----2---------2----------2-----------2-----------|
 G|-------4---------4----------4---------------------|
 D|---4---------4----------4---------4---------------|
 A|-2---------0--------------------------------------|
 E|----------------------0---------3-----------------|

 F#5                         G5
 Prometen un nuevo destino de la humanidad
 F#5                     G5
 a cambio de una vida sin identidad
 B5       A5
 Y sé que robarán mi piel
 E5           G5
 y escribirán su nombre sobre mí
 B5        A5          F#5
 y no podré decir que no


 G5                A5       B5
 Cuando nada seá mío seguiré,
                            e|-------------------|
                            B|-------------------|
                            G|-------------------|
                            D|---------2---------|
                            A|-0-2-4-0---5-4-0-2-|
                            E|-------------------|

 G5               A5           B5
 Cuando logren derribarme me pondré de pie
                                  e|-------------------|
                                  B|-------------------|
                                  G|-------------------|
                                  D|---------2---------|
                                  A|-0-2-4-0---5-4-0-2-|
                                  E|-------------------|

 G5                F#5     B5     A5     E5
 Porque si esta vida es "creer o no creer"
 G5      F#5         B5
 jamas perderé la fe

  B                A              Em            G
 No hay peor enemigo que uno mismo cuando no se acepta
  B                A              Em            G
 Y no hay peor dolor que la necesidad
  B                A              Em            G
 No dejes convencerte de que tu vida es la incorrecta
 e|---------------------------------------------------|
 B|---------------------------------------------------|
 G|---------------------------------------------------|
 D|-4---4---4---4---4---4---4---4---4---4---4---4---4-|
 A|---------------------------------------------------|
 E|---------------------------------------------------|

  B                A              Em            G
 no aceptes la limosna de la necedad
 e|---------------------------------------------------|
 B|---------------------------------------------------|
 G|---------------------------------------------------|
 D|-4---4---4---4---4---4---4---4---4---4---4---4---4-|
 A|---------------------------------------------------|
 E|---------------------------------------------------|

 F#5                         G5
 Solo somos libres al creer en libertad
 F#5                         G5
 Confía en tus ideas no dejes de soñar
 B5               A5                   E5            G5
 Porque pueden quitarte lo que has hecho y lo que haras
 B5     A5         F#5
 pero los sueños no


 G5                A5       B5
 Cuando nada seá mío seguiré,
                            e|-------------------|
                            B|-------------------|
                            G|-------------------|
                            D|---------2---------|
                            A|-0-2-4-0---5-4-0-2-|
                            E|-------------------|

 G5               A5           B5
 Cuando logren derribarme me pondré de pie
                                  e|-------------------|
                                  B|-------------------|
                                  G|-------------------|
                                  D|---------2---------|
                                  A|-0-2-4-0---5-4-0-2-|
                                  E|-------------------|

 G5                F#5     B5     A5     E5
 Porque si esta vida es "creer o no creer"
 G5      F#5         B5
 jamas perderé la fe

 E5    D5    C5   B5
 E5    D5    C#5  F#5

    B5            A5            E5            G5
 e|------------------------------------------------------|
 B|------------------------------------------------------|
 G|-----2--2-4-4------2--2-4-4-----2--2-4-4---9^-9^-9^-7-|
 D|-2-4-----------2-4-----------2-4----------------------|
 A|------------------------------------------------------|
 E|------------------------------------------------------|

    B5            A5            E5            G5
 e|------------------------------------------------------|
 B|-7------------8-7-------------------------------------|
 G|---9-7-7--7-9-----9-7------7---7---7--9^-9p7-9p7------|
 D|-----------------------7h9---9---9---------------9----|
 A|------------------------------------------------------|
 E|------------------------------------------------------|

    B5            A5            E5            G5
 e|------------------------------------------------------|
 B|------------------------------------------------------|
 G|----7--7-7-----7--7-7-----7--7-7--9^-9^-9^-7----------|
 D|-7-9--------7-9--------7-9----------------------------|
 A|------------------------------------------------------|
 E|------------------------------------------------------|

    B5                A5
 e|------------------------------------------------------|
 B|------------------------------------------------------|
 G|------------------------------------------------------|
 D|-7p9-9--9-7-----2p4-4--4-2----------------------------|
 A|------------9--------------5--------------------------|
 E|------------------------------------------------------|

     E5            G5           B5
 e|------------------------------------------------------|
 B|------------------------------------------------------|
 G|------------------------------------------------------|
 D|----7-------------------------------------------------|
 A|-7p9--7p9p7--5p7-5p4-2-4-2-0-2------------------------|
 E|------------------------------------------------------|

                           B5
 e|--------------------------------------------|
 B|--------------------------------------------|
 G|--------------------------------------------|
 D|-------------2------------------------------|
 A|-0--2--4--0-----5--4--0--2~-----------------|
 E|--------------------------------------------|

   El SaLuDo KoRdIAl Al GrUpO ^DsKiZiE^ Q Ia Ta SaLiEnDo
   D ToKaR En KuARtOs Y GaRaJEs AlAnT NuMas!
X) X) X) X) X) X) X) X) X) X) X) X) X) X) X) X) X) X) X) X) X) X)
X) X) X) X) X) X) X) X) X) X) X) X) X) X) X) X) X) X) X) X) X) X)
X) X) X) X) X) X) X) X) X) X) X) X) X) X) X) X) X) X) X) X) X) X)
X) X) X) X) X) X) X) X) X) X) X) X) X) X) X) X) X) X) X) X) X) X)
X) X) X) X) X) X) X) X) X) X) X) X) X) X) X) X) X) X) X) X) X) X)
X) X) X) X) X) X) X) X) X) X) X) X) X) X) X) X) X) X) X) X) X) X)

            
            
Suggest correction
Creating personal tab
Creating personal tab
You can edit any tab online and save it as your Personal.

You can edit, replace or remove any tab part or add personal notes – all changes will be seen only by you.

Personal tabs can be accessed anytime from any device, even offline.
Learn more »
Give kudos to tab author, rate the tab!
1 2 3 4 5
comments
print report bad tab
guest
Wanna post a correction for this tab? Suggest correction