Oops, an error
Loading. Please wait.

Aquí Estamos tab

by Nadie
65 views 1 this week
no commentswrite comment
1 2 3 4 5
3 more votes to show rating
add to favorites
×
Save as Personal and add changes to this tab that will be seen only by you. Learn more ›
×
You can save this tab as Personal to edit and correct it or add notes. All changes will be seen only by you. Learn more »
launch autoscroll
font size
0
reset
how to read this tab
guitar tuner
edit
Autoscroll
slow
fast
+/-
esc
set tempo
stop
INTRO: Amanecer esperando que el dia traiga algo bueno...
E|-----------------------------------------------------------------|
B|-----------------------------------------------------------------|
G|------------------------------------------6~~-------6~~--------6-| X3
D|--------8~~--------8~~---------6~~----6----------6----------6----|
A|---8-----------8-----------6--------4---4------4---4------4---4--|
E|-6----6------6---6-------4---4-----------------------------------|

Equivocarce es de humanos pero que duele
E|-----------------------------------------------------------------|
B|-----------------------------------------------------------------|
G|------------------------------------------6~~-------6~~----------|
D|--------8~~--------8~~---------6~~----6----------6-------------8-|
A|---8-----------8-----------6--------4---4------4---4---------8---|
E|-6----6------6---6-------4---4--------------------------4--6-----|

(Con distorcion)
E|------------------|
B|------------------|
G|------------------|
D|-88X8888-X-66-88--| X4
A|-88X8888-X-66-88--|
E|-66X6666-X-44-66--|

VERSO 1:
A#5               G#5
Pero aqui estamos
                 C#5
y aqui seguimos
                 G#5             A#5
viendo pasar esta vida de largo
                G#5
Y en le trapecio
               C#5
de ester circo
              G#5
vamos subiendo
               A#5
para redimirnos
               G#5
Buscamos fuego
                C#5
hasta quemarnos
                            G#5
pero aprendemos que el fuego iluumina el camino


CORO:
A#5
Pero aqui estamos
G#5
y aqui seguimos
C#5
en le trapecio
G#5
de ester circo


VERSO 2:
A#5             G#5
Nos encontramos
                C#5
aun insistiendo
                     G#5
buscando el faro guia,
               A#5
abrindo camino
               G#5
pisando fuerte
               C#5
haciendo ruido
                          G#5
sobrescribiendo este libro ya envejecido


CORO:
A#5
Pero aqui estamos
G#5
y aqui seguimos
C#5
en le trapecio
G#5
de ester circo

E|--------------------------|
B|--------------------------|
G|--------------------------| X3
D|-88-888888-88-881010-11/8-|
A|-88-888888-88-XXX-X--X-/8-|
E|-66-666666-66-668-8--9-/6-|
      |-pm-|

Bajo:
G|---------------------------------------------|
D|---------------------------------------------|
A|-----------------------4444444444------------| X2
E|-6666666666-4444444444------------4444444444-|

CORO:
A#5
Pero aqui estamos
G#5
y aqui seguimos
C#5
en le trapecio
G#5
de ester circo
G#5
de ester circo

ACORDES:
E|-----X-----X-----X-----|
B|-----X-----X-----X-----|
G|-----6-----X-----X-----|
D|-----6-----6-----8-----|
A|-----4-----6-----8-----|
E|-----X-----4-----6-----|
      C#5   G#5   A#5
Suggest correction
Creating personal tab
Creating personal tab
You can edit any tab online and save it as your Personal.

You can edit, replace or remove any tab part or add personal notes – all changes will be seen only by you.

Personal tabs can be accessed anytime from any device, even offline.
Learn more »
Give kudos to tab author, rate the tab!
1 2 3 4 5
comments
print report bad tab
guest
Wanna post a correction for this tab? Suggest correction