Oops, an error
Loading. Please wait.

Carne Trémula tab

by Nadie
42 views 1 this week
no commentswrite comment
1 2 3 4 5
3 more votes to show rating
add to favorites
×
Save as Personal and add changes to this tab that will be seen only by you. Learn more ›
×
You can save this tab as Personal to edit and correct it or add notes. All changes will be seen only by you. Learn more »
launch autoscroll
font size
0
reset
how to read this tab
guitar tuner
edit
Autoscroll
slow
fast
+/-
esc
set tempo
stop
trascripciòn por 2800 voltios
ruffuz666@


NADIE !!!!carne tremula!!!

hayyyy-la mujer
a jajaja , que te pasa, no te petese-el hombre
no, no es eso,es que me duele-la mjer
te duele, y eso?-el hombre
estado pullando toda la noche-la muejer

intro
|-------------------|
|-------------------|
|-------------------|
|--9--9-7--7-5-v----|
|--9--9-7--7-5-v----|
|--7--7-5--5-3-v----|   (v) siginifica vibrato

|---------------------|
|---------------------|
|---------------------|
|-2-2-2-2-2-2-5-5-7---|
|-2-2-2-2-2-2-5-5-7---|   el (.) es palmute
|-0-0-0-0-0-0-3-3-5---|
    . . . .
hierve la sangre

|---------------------|
|---------------------|
|---------------------|
|-2-2-2-2-2-2-5-5-7---|
|-2-2-2-2-2-2-5-5-7---|   el (.) es palmute
|-0-0-0-0-0-0-3-3-5---|
    . . . .
noche sin luna

|-----------------------------|
|-----------------------------|
|-----------------------------|
|-2-2-2-2-2-2-5-5-7-2-2-2-2-2-|
|-2-2-2-2-2-2-5-5-7-2-2-2-2-2-|
|-0-0-0-0-0-0-3-3-5-0-0-0-0-0-|
    . . .             . . . .
carne por carne y por carne sin medida

intermedio
|-----------------------|
|-----------------------|
|-5-5--5-9--9-8-8-8-7-5-|
|-5-5--5-9--9-8-8-8-7-5-|
|-3-3--3-7--7-6-6-6-5-3-|
|-----------------------|

|---------------------|
|---------------------|
|---------------------|
|-2-2-2-2-2-2-5-5-7---|
|-2-2-2-2-2-2-5-5-7---|   el (.) es palmute
|-0-0-0-0-0-0-3-3-5---|
    . . . .
ya estoy lixiado

|---------------------|
|---------------------|
|---------------------|
|-2-2-2-2-2-2-5-5-7---|
|-2-2-2-2-2-2-5-5-7---|   el (.) es palmute
|-0-0-0-0-0-0-3-3-5---|
    . . . .
de la carne tremula

|-----------------------------|
|-----------------------------|
|-----------------------------|
|-2-2-2-2-2-2-5-5-7-2-2-2-2-2-|
|-2-2-2-2-2-2-5-5-7-2-2-2-2-2-|
|-0-0-0-0-0-0-3-3-5-0-0-0-0-0-|
    . . .             . . . .
ya estar muy limitado sigo aqui adentro y estayando

intermedio
|-----------------------|
|-----------------------|
|-5-5--5-9--9-8-8-8-7-5-|
|-5-5--5-9--9-8-8-8-7-5-|
|-3-3--3-7--7-6-6-6-5-3-|
|-----------------------|

intro
|-------------------|
|-------------------|
|-------------------|
|--9--9-7--7-5-v----|
|--9--9-7--7-5-v----|
|--7--7-5--5-3-v----|   (v) siginifica vibrato

esta es la imitaciòn del saxofòn,   trate de sacarlo
lo mejor posible.

AAAHHAAAHA y mientras se hase el punteo, van estos
 acordes de laguitarra al fondo

      -Em5 G5 A5-   se asen por 7 veses.
|----------------------------------------------|
|----------------------------------------------|
|----------------12-13-12-------15b----12-13---|
|-------12-13-15----------15-12-----14------12-|
|-15-15----------------------------------------|
|----------------------------------------------|

|------------------------------------------|
|------------------------------------------|
|-17b-17b-17b-17b-17b--19bv---12-13-12-----|
|--------------------------14----------12--|
|------------------------------------------|
|------------------------------------------|

|----------------------------------------------|
|----------------------------------------------|
|-17b-17b-17b-17b-17b-17b--19bv----12-13-12----|
|-------------------------------14----------12-|
|----------------------------------------------|
|----------------------------------------------|

|-------------------------------|
|-------11----------------------|
|-11-14----14-14-14-13-12-15/19-|
|-------------------------------|
|-------------------------------|
|-------------------------------|
despues del saxo

|-------------------|
|-------------------|
|-------------------|
|-----------------2-|
|-----------------2-|
|-9-9-8-7-6-5-4-3-0-|

|--------------------------------------------|
|--------------------------------------------|
|-7-7-7-7-7------7-7-7-7-7-------------------|
|-7-7-7-7-7-7-9--7-7-7-7-7-7-9----7--7-5--5-2|
|-5-5-5-5-5-7-9--5-5-5-5-5-7-9----7--7-5--5-2|
|-----------5-7------------5-7----5--5-3--3-0|
carne             carne           carne tremula!!!!

|---------------------|
|---------------------|
|---------------------|
|-2-2-2-2-2-2-5-5-7---|
|-2-2-2-2-2-2-5-5-7---|   el (.) es palmute
|-0-0-0-0-0-0-3-3-5---|
    . . . .
mira los tenues

|---------------------|
|---------------------|
|---------------------|
|-2-2-2-2-2-2-5-5-7---|
|-2-2-2-2-2-2-5-5-7---|   el (.) es palmute
|-0-0-0-0-0-0-3-3-5---|
    . . . .
sombras que brillan

|-----------------------------------|
|-----------------------------------|
|-----------------------------------|
|-2-2-2-2-2-2-5-5-7-2-2-2-2-2-5-5-7-|
|-2-2-2-2-2-2-5-5-7-2-2-2-2-2-5-5-7-|
|-0-0-0-0-0-0-3-3-5-0-0-0-0-0-3-3-5-|
    . . .             . . . .
prision sin limite entre tu viente y tu vegiga

|---------------------|
|---------------------|
|---------------------|
|-2-2-2-2-2-2-5-5-7---|
|-2-2-2-2-2-2-5-5-7---|   el (.) es palmute
|-0-0-0-0-0-0-3-3-5---|
    . . . .
olores fuerte

|---------------------|
|---------------------|
|---------------------|
|-2-2-2-2-2-2-5-5-7---|
|-2-2-2-2-2-2-5-5-7---|   el (.) es palmute
|-0-0-0-0-0-0-3-3-5---|
    . . . .
y pica cruda


|-----------------------------|
|-----------------------------|
|-----------------------------|
|-2-2-2-2-2-2-5-5-7-2-2-2-2-2-|
|-2-2-2-2-2-2-5-5-7-2-2-2-2-2-|
|-0-0-0-0-0-0-3-3-5-0-0-0-0-0-|
    . . .             . . . .
el punto heavy es bastante con saliva

|-------------------|
|-------------------|
|-------------------|
|-----------------2-|
|-----------------2-|
|-9-9-8-7-6-5-4-3-0-|

|-----------------|
|-----------------|
|-----------------|
|-7-7--7-5--9-9-2-|
|-7-7--7-5--9-9-2-|
|-5-5--5-3--7-7-0-|

   ACORDES
Em5 A5 G5 B5
|-X--X--X--X--X--X--X-|
|-X--X--X--X--X--X--X-|
|-X--X--X--X--7--9--5-|
|-2--7--5--9--7--9--5-|
|-2--7--5--9--5--7--3-|
|-0--5--3--7----------|

LISTO!!!   AHÌ ESTA,  SI ALGO ME BUSCAN
ruffuz666@
todo bien parceros

VOLTIOS DESCARGA!!!!!!

            
            
Suggest correction
Creating personal tab
Creating personal tab
You can edit any tab online and save it as your Personal.

You can edit, replace or remove any tab part or add personal notes – all changes will be seen only by you.

Personal tabs can be accessed anytime from any device, even offline.
Learn more »
Give kudos to tab author, rate the tab!
1 2 3 4 5
comments
print report bad tab
guest
Wanna post a correction for this tab? Suggest correction