Oops, an error
Loading. Please wait.

Señor Adtivista tab

by Nadie
11 views 1 this week
no commentswrite comment
1 2 3 4 5
3 more votes to show rating
add to favorites
×
Save as Personal and add changes to this tab that will be seen only by you. Learn more ›
×
You can save this tab as Personal to edit and correct it or add notes. All changes will be seen only by you. Learn more »
launch autoscroll
font size
0
reset
how to read this tab
guitar tuner
edit
Autoscroll
slow
fast
+/-
esc
set tempo
stop
B5                              E5   D5
adtivista de que, yo no me trago tus ideas
B5                              E5   D5
soy de los que rayan fuerte, conlaciones y palabras
B5                                   E5     D5
me escondido en los muros y en los bloques de cemento
B5                              E5   D5
es màs politico que el mis mo que gobierna

INTERMEDIO
|-------------------------------------|
|-------------------------------------|
|-------------------------------------|
|-------------------------------------|
|---5-5--7-6---5-5-7-6-7-6-5-4--3--2--|
|-7----------5------------------------|

CORO
B5                         E5   D5
adtivista de que!!!! adtivista de que!!!!

B5                         E5   D5
adtivista de que!!!! adtivista de que!!!!
B5                         E5   D5
adtivista de que!!!! adtivista de que!!!!
B5                         E5     A5
adtivista de que!!!! adtivista de que!!!!

B5                                E5      D5
tu maldita guerra es la que ensucia el cristal
B5                                E5      D5
la que enseguese, la que nunca el ambre va a quitar
B5                                E5      D5
la que alimenta ala dirigencia y su maldad
B5                                E5      D5
la que crea un avismo entre tus palabras y tu actuar

INTERMEDIO
|-------------------------------------|
|-------------------------------------|
|-------------------------------------|
|-------------------------------------|
|---5-5--7-6---5-5-7-6-7-6-5-4--3--2--|
|-7----------5------------------------|

CORO
B5                         E5   D5
adtivista de que!!!! adtivista de que!!!!

B5                         E5   D5
adtivista de que!!!! adtivista de que!!!!
B5                         E5   D5
adtivista de que!!!! adtivista de que!!!!
B5                          E5      F5(v)-aqui es con vibrato
adtivista de que!!!! adtivista de que!!!!

INTERMEDIO
  B+8            A5                    E5 D5    B5
|---------------------------------------------------|
|---------------------------------------------------|
|----7----------------------------------9-7-9-7-4-4-|
|---9---9-7-9--9-7-9--9-7-9--9-7-9--9-7-9-7-9-7-4-4-|
|--9----9-7-9--9-7-9--9-7-9--9-7-9--9-7-7-5-7-5-2-2-|
|-7-----7-5-7--7-5-7--7-5-7--7-5-7--7-5-------------|


CORO
F5                             B+8 A5
adtivista de que!!!! adtivista de que!!!!
F5                             B+8 A5
adtivista de que!!!! adtivista de que!!!!
F5                             B+8 A5
adtivista de que!!!! adtivista de que!!!!
F5                             B+8   C5 A5 F5
adtivista de que!!!! adtivista de que!!!!

ACORDES

  E5 B+8 A5 C5  B5 D5 F5
|-x---x--x--x---x--x--x-|
|-x---x--x--x---x--x--x-|
|-9---x--x--5---4--7--x-|
|-9---9--7--5---4--7--4-|
|-7---9--7--3---2--5--4-|
|-x---7--5--x---x--x--4-|

LISTO!!!!  haìu està,
 es muy buena, tienen que oirla muy bien.
ruffuz666@

            
            
Suggest correction
Creating personal tab
Creating personal tab
You can edit any tab online and save it as your Personal.

You can edit, replace or remove any tab part or add personal notes – all changes will be seen only by you.

Personal tabs can be accessed anytime from any device, even offline.
Learn more »
Give kudos to tab author, rate the tab!
1 2 3 4 5
comments
print report bad tab
guest
Wanna post a correction for this tab? Suggest correction