Oops, an error
Loading. Please wait.

Satán chords

by Nagual
17 views 1 this week
no commentswrite comment
1 2 3 4 5
3 more votes to show rating
add to favorites
×
Save as Personal and add changes to this tab that will be seen only by you. Learn more ›
×
You can save this tab as Personal to edit and correct it or add notes. All changes will be seen only by you. Learn more »
launch autoscroll
font size
0
reset
transpose
0
reset
simplify chords
display chords
guitar tuner
edit
Autoscroll
slow
fast
+/-
esc
set tempo
stop
Strumming
There is no strumming pattern for this song yet. and get +5 IQ
intro
-------------------------------------------------
-------------------------------------------------
-------------------------------------------------
-------------------------------------------------
--5--5-5-55--8--8-8-8-8--3--3-3-3-3--------------
-------------------------------------3--3-3-3-3--

---------------------------------------------
---------------------------------------------
---------------------------------------------
---------------------------------------------
--3--3-3-3-3--8--8-8-8-8--5-8-5-3-5-3-2-3----
---------------------------------------------

(todo con base como intro)

le dieron dos años en la carcel del menor,

pero alli donde satan lo conocio

y junto a su ranchada pajarito convido

pero siempre que faquea su jabon (riff 1)


estribillo

        A#5           C5            ( riff 2)
que prefiera reir mucho antes que llorar

A#      C               (riff 2)
antes que empezar a regalarse


A#            C                   (riff 2)
prefiera seguir, mucho antes que parar


A#           C                          D
que sepan bien que ellos siempre van a estar


(PRIMER SOLO CON BASE COMO INTRO)


salio pa' la calle dos rehenes se tomo,

pedia mucha plata para devolver

y en la cumparcita negociaba con el juez

le decia que ella tiene que saber


A#            C                   (riff 2)
prefiera seguir, mucho antes que parar


A#      C               (riff 2)
antes que empezar a regalarse


        A#5           C5            ( riff 2)
que prefiera reir mucho antes que llorar


A#           C                          D
que sepan bien que ellos siempre van a estar


segundo solo sobre base de estribillo


riff 1
---------------------------
---------------------------
---------------------------
---------------------------
---5--7--8--7--5-----------
---------------------------

      riff 2
----------------------------
----------------------------
----------------------------
----------------------------
--5-5-7-8-7-5-10-8-7-8-7-5--
----------------------------

NOTA: hay partes de la letra que pueden estar mal

            
            
Suggest correction
Creating personal tab
Creating personal tab
You can edit any tab online and save it as your Personal.

You can edit, replace or remove any tab part or add personal notes – all changes will be seen only by you.

Personal tabs can be accessed anytime from any device, even offline.
Learn more »
Give kudos to tab author, rate the tab!
1 2 3 4 5
comments
print report bad tab
guest
Wanna post a correction for this tab? Suggest correction