Oops, an error
Loading. Please wait.

El Río De Los Tiempos tab

38 views 1 this week
no commentswrite comment
1 2 3 4 5
2 more votes to show rating
add to favorites
×
Save as Personal and add changes to this tab that will be seen only by you. Learn more ›
×
You can save this tab as Personal to edit and correct it or add notes. All changes will be seen only by you. Learn more »
launch autoscroll
font size
0
reset
how to read this tab
guitar tuner
edit
Autoscroll
slow
fast
+/-
esc
set tempo
stop
Hola, hace un tiempo me saque este tema y he decidido darme el tiempo
y compartirlo. No lo dejo con maximo de detalle, en algunas partes
tendrán que escuchar el tema para notas que se mantienen.

DO=C, RE=D, MI=E, FA=F, SOL=G, LA=A, SI=B

Afinar 6ta cuerda en D, Cejillo o Capo 2do espacio. Escuchen la intro
y sabran como ligar las notas.

Intro:

E|----2-2----5-5----7-----3----0-0----2-3-2-0-2---2-0-0--(rasgueo----|
B|---3--3---5--5---7-----3----2--2---3--3-3-3-3--3---2----Re)--------|
G|--2---2--4---4--6-----2----2---2--2---2-2-2-2-2--------------------|
D|-0------0------0-----0----0------0----0-0-0-0----------------------| (x2)
A|-------------------------------------------------------------------|
D|-------------------------------------------------------------------|

   De - je - mos los dis-fraces              pa' encon-trarnos otra vez
E|----2-2------5-5-----3----2-2h3p2-------------2-2-------0-0-----0------
B|---3--3-----5--5----3----3-------3-----------3--3------3--3----3---2---
G|--2---------------------2---------2---------2---------2---2---2----2---
D|-0---------4-------2---0-----------4p2p0---0-----------------------2---
A|-----------------------------------------------------4-------2-----0---
|------------------------------------------------------------------------


   que  la  vi - da se muestre tal como es (escuchen el tema y entenderan)
E|------------------------2-------------------------
B|----0-0-----2--3--5----3------3---0-----2--3-5----
G|---0--0----2---0--0---2-------2---0-----2--0-2----
D|--0-------2----0--0--0--------0---0-----2--0-2----
A|---------0-----2--4---------------------0--2-4----
D|-5----------------------------4---5---------------

Abramos los candados, los que guardan la razon
para volver a entrar en la emocion. (lo mismo que arriba)

Coro: (rasguenado, escuchen el tema)

    Bañe-monos desnudos  bajo la luz del sol que el rio de los tiempos
E|--------------------------------------------------------------------
B|--3----2------3--------3----2----------3---3----------2------3------
G|--0----2------2--------0----2----------2---0----------2------2------
D|--0----2------0--------0----2----------0---0----------2------0------
A|--5----0------2--------5----0----------2---5----------0------2------
D|--5--------------------5-------------------5------------------------

    nos limpiara
E|----------------------
B|-------------2--3--2--
G|-------------2--2--2--
D|-------------2--0--2--
A|-------------0--2--0--
D|----------------------

    Bañe-monos desnudos  bajo la luz del sol que el rio de los tiempos
E|--------------------------------------------------------------------
B|--3----2------3--------3----2----------3---3----------2------3------
G|--0----2------2--------0----2----------2---0----------2------2------
D|--0----2------0--------0----2----------0---0----------2------0------
A|--5----0------2--------5----0----------2---5----------0------2------
D|--5--------------------5-------------------5------------------------

    nos limpiara     nos limpiara
E|-----------------------------2--3--2-----2--3--2---
B|-----------------------------3--3--3--3--3--3--3---
G|-------------1---------------2--4--2--2--2--4--2---
D|-------------2---------------0--0--0--0--0--0--0---
A|-------------2------------------------2------------
D|-------------2-------------------------------------

Saquemos las malezas, de los campos del amor
que la cosecha llegue a su esplendor
apaguemos el ruido... y encendamos la cancion
para que el canto viva en la intuicion (lo mismo del inicio cantado)

Coro:

    Bañe-monos desnudos  bajo la luz del sol que el rio de los tiempos
E|--------------------------------------------------------------------
B|--3----2------3--------3----2----------3---3----------2------3------
G|--0----2------2--------0----2----------2---0----------2------2------
D|--0----2------0--------0----2----------0---0----------2------0------
A|--5----0------2--------5----0----------2---5----------0------2------
D|--5--------------------5-------------------5------------------------

    nos limpiara
E|----------------------
B|-------------2--3--2--
G|-------------2--2--2--
D|-------------2--0--2--
A|-------------0--2--0--
D|----------------------

    Bañe-monos desnudos  bajo la luz del sol que el rio de los tiempos
E|--------------2--------0----2----------2---------------------2------
B|--3----2------3--------0----2----------3---3----------2------3------
G|--0----2------4--------0----3----------4---0----------2------4------
D|--0----2------4--------2----4----------4---0----------2------4------
A|--5----0------2--------2----4----------2---5----------0------2------
D|--5--------------------0----2--------------5------------------------

    nos limpiara     nos limpiara
E|-----------------------------2--3--2-----2--3--2---
B|-----------------------------3--3--3--3--3--3--3---
G|-------------1---------------2--4--2--2--2--4--2---
D|-------------2---------------0--0--0--0--0--0--0---
A|-------------2------------------------2------------
D|-------------2-------------------------------------

INTRO(X2)

            
            
Suggest correction
Creating personal tab
Creating personal tab
You can edit any tab online and save it as your Personal.

You can edit, replace or remove any tab part or add personal notes – all changes will be seen only by you.

Personal tabs can be accessed anytime from any device, even offline.
Learn more »
Give kudos to tab author, rate the tab!
1 2 3 4 5
comments
print report bad tab
guest
Wanna post a correction for this tab? Suggest correction