Oops, an error
Loading. Please wait.

De Bajón tab

by Narco
230 views 3 this week
no commentswrite comment
1 2 3 4 5
3 more votes to show rating
add to favorites
×
Save as Personal and add changes to this tab that will be seen only by you. Learn more ›
×
You can save this tab as Personal to edit and correct it or add notes. All changes will be seen only by you. Learn more »
launch autoscroll
font size
0
reset
how to read this tab
guitar tuner
edit
Autoscroll
slow
fast
+/-
esc
set tempo
stop
Hay va esta cojonuda cancion de Narco.


Intro
Aqui en la intro prestad atencion a los martilleos para que suene bien.

E||----------------------------------------|
B||----------------------------------------|
G||---------------------2--2-0h-2-0h-3-3-0-|
D||--2--2-0h-2-0h-2-2-0--------------------|
A||----------------------------------------|
E||----------------------------------------|


---------------------------------------|-----|
---------------------------------------|-----|
---------------------------------------|-----|
--2--2-0h-2-0h-2-2-0---------------0-1-|--2--|
---------------------2--2-0h-2-0-2-----|-----|
---------------------------------------|-----|


Verso

|------------------------------------|
|-----5-5-5-5-3-3-3---2-2-2-2----3-5-|
|*----4-4-4-4-4-4-4---2-2-2-2S-4-----|
|*-----------------------------------|
|------------------------------------|
|------------------------------------|

--------------------------------------||----------------------4---2---0--|
----5-5-5-5-3-3-3---14-14-14-12--12---||----5-5-5-5-3-3-3----------------|
----4-4-4-4-4-4-4---14-14-14-12--12--*||----4-4-4-4-4-4-4---4---4---4----|
-------------------------------------*||---------------------------------|
--------------------------------------||---------------------------------|
--------------------------------------||---------------------------------|


-------------------------------------|-----|-----|
----5-5-5-5-3-3-3---14-14-14-12--12--|-----|-----|
----4-4-4-4-4-4-4---14-14-14-12--12--|-----|-----|
-------------------------------------|-----|-----|
-------------------------------------|-----|-----|
-------------------------------------|-----|-----|


Punteo

Aqui colocar el primer dedo con cejilla en el traste 12
y golpear con el tercer dedo

                          PM PM                       PM PM
|-----------------------------------------------------------|
|-----------------------------------------------------------|
|*------------12-------12-----------------12-------12-------|
|*--14p-12--------14---12-12-12-14p-12--------14---12-12-12-|
|----------14--------------------------14-------------------|
|-----------------------------------------------------------|


                         PM PM
-----------------------------------------------------------||
-----------------------------------------------------------||
------------12-------12-----------------12-14-15-15-15-15-*||
--14p-12--------14---12-12-12-14p-12----------------------*||
---------14--------------------------14--------------------||
-----------------------------------------------------------||

A partir de aqui Wha-Wha

------------------------------------------------|
------------------------------------------------|
--4S-16-16-16-16-16-16-4S--16-16-16-16-16-16-4S-|
------------------------------------------------|
------------------------------------------------|
------------------------------------------------|

----------------------------------------|
----------------------------------------|
--L-16-16-16-16-16-16-16--14--12--------|
---------------------------------14~----|
----------------------------------------|
----------------------------------------|


-----------------------------------------------------------------|
----15p-12------15p-12------15p-12------15p-12------15p-12-------|
-----------14b---------14b---------14b---------14b---------14b~--|
-----------------------------------------------------------------|
-----------------------------------------------------------------|
-----------------------------------------------------------------|


----------------------------------------||
----------------------------------------||
----14b--14b-14b---14b--12--------------||
---------------------------14-12-14~----||
----------------------------------------||
----------------------------------------||


Tablature Legend
----------------
x - dead note
h - hammer on
p - pull off
b - bend
br - bendRelease
pb - preBend
S - shift slide
s - legato slide
~ - vibrato
TP - tremolo picking
< - fade in
^ - brush up
v - brush down

            
            
Suggest correction
Creating personal tab
Creating personal tab
You can edit any tab online and save it as your Personal.

You can edit, replace or remove any tab part or add personal notes – all changes will be seen only by you.

Personal tabs can be accessed anytime from any device, even offline.
Learn more »
Give kudos to tab author, rate the tab!
1 2 3 4 5
comments
print report bad tab
guest
Wanna post a correction for this tab? Suggest correction