Oops, an error
Loading. Please wait.

Dime Por Qué tab

by Nek
62 views 1 this week
no commentswrite comment
1 2 3 4 5
3 more votes to show rating
add to favorites
×
Save as Personal and add changes to this tab that will be seen only by you. Learn more ›
×
You can save this tab as Personal to edit and correct it or add notes. All changes will be seen only by you. Learn more »
launch autoscroll
font size
0
reset
how to read this tab
guitar tuner
edit
Autoscroll
slow
fast
+/-
esc
set tempo
stop
F,Dm,F,Dm

                    
Me sorprendo otraves
F                Dm
Buscando en tus besos 
              F               Dm
algo que nos robo el paso del tiempo
                Gm
pude ver en tus ojos 
F                C          C9/C  
la tristesa que esconde el corazon
            Gm          F                empiesa el riff
el amor que inventamos se escapo como un ladron


riff1 es para las partes del coro (4 veces)
E|------------------------------------------------------|
B|------------------------------------------------------|
G|------------------------------------------------------|
D|--5---------------5--7-7--5----------------5--7-7--5--|
A|--3-----3-5-1--3--3--5-5--3------3-5-1--3--3--5-5--3--|
E|----3-5--------1-------------3-5--------1-------------|

(coro)
dime dime dime que fue de la pasion
dime dime dime porque se nos rompio
hoy me abrasa la soledad
contigo a mi lado
y presiento que hay un adios en tu voz


que te puedo contar
F              Dm
si todo ya es nada
             F 
el olvido no sabe 
                  Dm
nunca volver hasia atras
             Gm (Riff2)
el otoño de ramas
F              C         C9/C
hojas secas en nuestra habitacion
                   Gm (Riff3)
la rutina es quien mueve
F               C
las agujas del reloj


Riff2
1|--------------------------------------------|
2|--10/11--10-8----10/11--10--8---------------|
3|--------------------------------------------|


Riff3
1|--------------------------------------------|
2|---10/11--10-8---10/11--10---11/13----------|
3|--------------------------------------------|


(coro)
dime dime dime que fue de la pasion
dime dime dime porque se nos rompio
entre tus caderas yo perdi mil guerras
y en tus labios sabios
aprendi a soñar


E|----------------------------------------------------------|
B|----------------------------------------------------------|
G|----------------------------------------------------------|
D|----------------------------------------------------------|
A|--15-15-12---14p12---14p12------15-15--14-12----15-17-----|
E|----------------------------15---------------15-----------|


E|------------------------------------------------------------|
B|------------------------------------------------------------|
G|------------------------------------------------------------|
D|--15--17/19--17--19-----------------------------------------|
A|--------------------15-15-12--14p12--14p12------------------|
E|-------------------------------------------15-13-12--10-8-6-|

ahhh ahhh
se nos fue lo que fuimos ayer
ahhh ahhh
tu y yo naofragos de un sueño 
que nos rompe el corazon

A#      Gm
oh asi,oh asi


donde estuvo el error
F            Dm
cual fue el silencio
             F
que se hice eterno entre los 2
        Dm
como un lamento 
                Gm
mis palabras te buscan
F                  C
pero tu andas tan lejos ya de mi
                  Gm
que no alcanso a contarte
F                C
que no se vivir sin ti

(coro)
dime dime dime que fue de la pasion
dime dime dime porque se nos quebro
dime dime dime que are con mi dolor
dime dime dime porque dime dime dime porque 


(Solo)
E|--------------------------------------------|
D|--------------------------------------------|
G|--5/7-5-7-5-7-5-----------------------------|
D|----------------8-7-7--5h7p/3h5-------------|
A|--------------------------------3-3--3-3----|
E|--------------------------------------------|


E|---------------------------------|
D|---------------------------------|
G|---------------------------------|
D|----------5/7-5-7-5-7-5--------5-|
A|------3-5---------------8-7-3--3-|
E|---3-5---------------------------|


*=================================================*
Tab:Eduardo Tovar  Corregida
vertical81@

            
            
Suggest correction
Creating personal tab
Creating personal tab
You can edit any tab online and save it as your Personal.

You can edit, replace or remove any tab part or add personal notes – all changes will be seen only by you.

Personal tabs can be accessed anytime from any device, even offline.
Learn more »
Give kudos to tab author, rate the tab!
1 2 3 4 5
comments
print report bad tab
guest
Wanna post a correction for this tab? Suggest correction