Oops, an error
Loading. Please wait.

En Que Estrella Estará chords

version 4
version 4

Whole song

Interactive

108 views 3 this week
no commentswrite comment
1 2 3 4 5
3 more votes to show rating
add to favorites
×
Save as Personal and add changes to this tab that will be seen only by you. Learn more ›
×
You can save this tab as Personal to edit and correct it or add notes. All changes will be seen only by you. Learn more »
launch autoscroll
font size
0
reset
transpose
0
reset
simplify chords
display chords
guitar tuner
edit
Autoscroll
slow
fast
+/-
esc
set tempo
stop
Strumming
There is no strumming pattern for this song yet. and get +5 IQ
EN K ESTRELLA ESTARÁ??

la intro, llamaremos riff 1 al siguiente riff :

    F     C           Dm             A#
-||-------------------------------------66--
-||----10-------5------------6----------66--
-||----10-------5------------7--------------     Riff 1  x1
-||--10-------5-------------7----------8----
-||-8-------3------------5-----------8------
-||-----------------------------------------

     F       C         Dm             A#
-||--------------------------------------xxx6x---
-||----10--------5------------6----------xxx6x---
-||----10--------5------------7----------xxx7x---      x1
-||--10-------5-------------7--------------------
-||-8-------3------------5-----------------------
-||----------------------------------------------

en el riff 1 se basa casi toda la canción, con
variaciones fáciles de punteo a raspado con tapeo en el
La, cómo la de arriba ( si te limitas a
acer solo riff 1 kedarás como un señor igualmente ) .

Dm**
--------
-----6--
-----7--
---7----
-0------
--------

---Riff 1 x2---

F             C              Dm
  he creado un manjar verde y gris
                A#
que se pasea de noche. no lo puedo ver.
F               C          Dm
  está donde la luz que dicen que
                   A#
donde terminan los sueños de la realidad

-----Riff 2---- (mismo punteo k el Riff 1, pero con estos acordes)

Dm                  Dm**
  donde se escapan los niños si no quieres más
Dm                  A#
  donde se ahogan los gritos de mi mitad

----Riff 1 x2----
he creado un manjar verde y gris
a veces le hablo bajito por si está..
le busco por la calle, camino...
a veces le echo de menos si tú no estás
----Riff 2----
a veces tengo que hacer de tripas corazón
a veces tengo que huir porque no puedo más


---Estribillo en distorsión , todo en powers---

F5                       A#5
  ¿en qué estrella estará   para cuidar de él?
D5            C5
  me pasaré la vida sin dormir...
F5                       A#5
  ¿en qué estrella estará   mi dulce corazón?
D5                   C5
  ¿por qué me roba la vida la razón?
F5                   A#5
  dime, ¿quién vendrá   a ocupar tu lugar?
D5                      C5
  ¿por qué mis sueños se rompen de golpe?

----Riff 1 x2----

      F       C        Dm             A#
-||--------------------------------------x6x6-----
-||----10--------5------------6----------x6x6-----
-||----10--------5------------7----------x7x7-----
-||--10-------5-------------7---------------------     X1
-||-8-------3------------5------------------------
-||-----------------------------------------------

----Riff 2 ----
Dm                    Dm**
donde terminan los sueños de la realidad
Dm                    A#
donde se ahogan los gritos de mi mitad


---Estribillo en distorsión , todo en powerchords--- x2

¿en qué estrella estará para cuidar de él?
me pasaré la vida sin dormir
¿en qué estrella estará mi dulce corazón?
¿por qué me roba la vida la razón?
dime, ¿quién vendrá a ocupar tu lugar?
¿por qué mis sueños se rompen de golpe...


----Riff 1 x 2----

      F       C          Dm           A#
-||--------------------------------------x66x6--------
-||----10--------5------------6----------x77x7--------
-||----10--------5------------7----------x77x7--------
-||--10-------5-------------7------------------------- X1
-||-8-------3------------5----------------------------
-||---------------------------------------------------

                       ...quiero irme  con él.

-----------------------------------------------------------------
-----------------------------------------------------------------

Nota: si kieres tokar esta canción a una
guitarra solucionas el estribillo con
este riff, si en tu parkecillo ay un gitaniyo kon
guitarra le dices ke en el estribillo te raspe
esos acordes con un ritmo wapo mientras
tu los punteas.

      F       A#          Dm         C
-||-------------------------------------------
-||----1--------6------------6----------55----
-||----2--------7------------7----------55----
-||--3-------8-------------7----------5-------
-||-3-------8------------5-----------3--------
-||-------------------------------------------

y asi podeis kedar komo los xungos del oeste delante
de vuestros coleguillas kuando bajeis al parke a
tocar palmas y flamenkito.

engaa a tocar la guitarr!


Se A dediko A E pinxessa d'estiu

            
            
Suggest correction
Creating personal tab
Creating personal tab
You can edit any tab online and save it as your Personal.

You can edit, replace or remove any tab part or add personal notes – all changes will be seen only by you.

Personal tabs can be accessed anytime from any device, even offline.
Learn more »
Give kudos to tab author, rate the tab!
1 2 3 4 5
comments
print report bad tab
guest
Wanna post a correction for this tab? Suggest correction