Oops, an error
Loading. Please wait.

Mírame Una Vez Más tab

version 2
version 2

Whole song

8 views 1 this week
no commentswrite comment
1 2 3 4 5
3 more votes to show rating
add to favorites
×
Save as Personal and add changes to this tab that will be seen only by you. Learn more ›
×
You can save this tab as Personal to edit and correct it or add notes. All changes will be seen only by you. Learn more »
launch autoscroll
font size
0
reset
how to read this tab
guitar tuner
edit
Autoscroll
slow
fast
+/-
esc
set tempo
stop
Bueno espero que les cope, este es el punteo original

1/--------------10-10--10-13-13-13-10-8-8-8-10-8-10-8--
2/------10----10-----10--------------------------------
3/7/10-----10------------------------------------------

1/-----------3-3---3-5-6-6-6-6-5-5---------------------
2/-----3---3-----3----------3-----3-3-1-3--------------
3/1/3---3----------------------------------------------
 esto repiten 2 veces y luego agan ese de abajo

1/---------------------------------5-------------------
2/6/-6-5-6-8-6-------------------6---------------------
3/-------------7--------5-7-6-7--------77--------------
4/---------------7-8-7-8-------------------------------

1/----------------------------------5-6----------------
2/6/-6-5-6-8-6-------------------6-------8-------------
3/-------------7--------5-7-6-7------------------------
4/---------------7-8-7-8-------------------------------

1/-------10---13-13------------------8-8---------------
2/-----10-----------10-----------10-------10-----------
3/---10------------------------------------------------

1/-----------------------------------------------------
2/-----------------------------------------------------
3/-----------------------------------------------------
4/--10-8-7-8-7-----------------------------------------
5/---------------10-8--8--8----------------------------

bueno loco aguante la cumbia y espero q les salga estee
simple punteo...cualkier duda a FER_V_1994@

man soy Fernando ahi te lo corregi un poko al punteo espero
q no te enojes si crees q esta mal pruebalo al lado del
punteo del tema de nestor original y veras q esta bn...!!!
Suggest correction
Creating personal tab
Creating personal tab
You can edit any tab online and save it as your Personal.

You can edit, replace or remove any tab part or add personal notes – all changes will be seen only by you.

Personal tabs can be accessed anytime from any device, even offline.
Learn more »
Give kudos to tab author, rate the tab!
1 2 3 4 5
comments
print report bad tab
guest
Wanna post a correction for this tab? Suggest correction