Oops, an error
Loading. Please wait.

Si Vuelves tab

24 views 3 this week
no commentswrite comment
1 2 3 4 5
3 more votes to show rating
add to favorites
×
Save as Personal and add changes to this tab that will be seen only by you. Learn more ›
×
You can save this tab as Personal to edit and correct it or add notes. All changes will be seen only by you. Learn more »
launch autoscroll
font size
0
reset
how to read this tab
guitar tuner
edit
Autoscroll
slow
fast
+/-
esc
set tempo
stop
Gsus4  B7sus4  Em
D7sus4 D7

                          C    D
-----------5--7--5--------12---12--10--9--10-----
--------8-----------8----------------------------
-----7-----------------7-------------------------
--5----------------------------------------------
-------------------------------------------------
-------------------------------------------------

                  C                   Cm
--10--12--14--12--10--10--8--7--8--10-11-10------
-------------------------------------------------
-------------------------------------------------
-------------------------------------------------
-------------------------------------------------
-------------------------------------------------

  G
--8--7-------------------------------------------
--------10--8--7---------------------------------
------------------9--7---------------------------
------------------------10--9--7--5--------------
-------------------------------------------------
-------------------------------------------------

                          C    D
-----------5--7--5--------12---12--10--9--10-----
--------8-----------8----------------------------
-----7-----------------7-------------------------
--5----------------------------------------------
-------------------------------------------------
-------------------------------------------------

  C                   D                       G
--10--12--14--12--10--10--8--7-------------------
--------------------------------10--8--7--10--8--
-------------------------------------------------
-------------------------------------------------
-------------------------------------------------
-------------------------------------------------

G           B7      Em
Si vuelves, mañana, tendré la flor
Dm     G7       C      Cm
que se llevó tu mirada
             G
ya no vendrás, trigo y umbral
A               D
amanecida en guitarras.

D7sus4  D7

Espero que el tiempo, venga a mojar
tu luna de lluvia y fuego
como un tizón, rojo por vos
que viene a entibiar mi copla.

Ebº  F#º  Aº  Cº

Em                Bm
Aromas de un beso llevo,
G7                    C
se ha vuelto madera y ruego
Cm          G
como la luz que vive en vos,
A                              D
te espero en las mañanas de mi pueblo
C           G
como la luz que vive en vos,
A                        D
te espero en las mañanas de mi pueblo
C             G    C  B7       Em
     de mi pueblo, de mi pueblo.

Intro


Sollozo, lejano, como este amor
que suelta tristes palomas
y volarás, al cielo azul
trayendo tu antiguo rezo

La noche pregunta dónde andará
mi pena tras de tu templo
como oración, trayéndome
tus pasos por las calles de mi pueblo.


Escriban, che !!! garciajuanm@

            
            
Suggest correction
Creating personal tab
Creating personal tab
You can edit any tab online and save it as your Personal.

You can edit, replace or remove any tab part or add personal notes – all changes will be seen only by you.

Personal tabs can be accessed anytime from any device, even offline.
Learn more »
Give kudos to tab author, rate the tab!
1 2 3 4 5
comments
print report bad tab
guest
Wanna post a correction for this tab? Suggest correction