Oops, an error
Loading. Please wait.

Tal Vez Sea Así tab

version 2
version 2

Whole song

20 views 1 this week
no commentswrite comment
1 2 3 4 5
3 more votes to show rating
add to favorites
×
Save as Personal and add changes to this tab that will be seen only by you. Learn more ›
×
You can save this tab as Personal to edit and correct it or add notes. All changes will be seen only by you. Learn more »
launch autoscroll
font size
0
reset
how to read this tab
guitar tuner
edit
Autoscroll
slow
fast
+/-
esc
set tempo
stop
Hola soy franco, me corregi a mi mismo.
Nada mas que tuve que cambiar mi infomracion
porque me olvide de todos mis datos anteriores.
Aquí les dejo mi nuevo mail.
miguitarrafmc10@ bueno
aquí les dijo la parte de violin y guitarra.
Espero les guste. Es la versión original.

4/4
Violin (arreglo guitarra).
E)-15---------------|
B)------------------|
G)------------------|
Guitarra C9
E)-0------0---------|
B)----3-------3-----|
G)--0---0---0---0---|
D)------------------|
A)-3------3---------|
E)------------------|

E)-15---------------|
B)------------------|
G)------------------|
        C9/B
E)-0------0--------|
B)----3-------3----|
G)--0---0---0---0--|
D)-----------------|
A)-2------2--------|
E)-----------------|

E)-15-13-12---------|
B)----------15------|
G)------------------|
        C9/Bb
E)-0------0--------|
B)----3-------3----|
G)--0---0---0---0--|
D)-----------------|
A)-1------1--------|
E)-----------------|

E)-------------12--|
B)-14-----15-------|
G)-----------------|
        C#º
E)-----------------|
B)-5------5--------|
G)----3-------3----|
D)--5---5---5----5-|
A)-4------3--------|
E)-----------------|

E)-13---------------|
B)------------------|
G)------------------|
         Dm
E)-1-------1--------|
B)-----3-------3----|
G)---2---2---2---2--|
D)-0------0---------|
A)------------------|
E)------------------|

E)-13-----12-------|
B)------------15---|
G)-----------------|
         G
E)-3------3--------|
B)----3-------3----|
G)--0---0---0---0--|
D)-----------------|
A)-----------------|
E)-3------3--------|

E)-12---------------|
B)------------------|
G)------------------|
   C       E7
E)-------0---0------|
B)-----1-----0------|
G)---0-------1------|
D)-----------0------|
A)-3-------2--------|
E)---------0--------|

Solo de violin. 6/8
La guitarra acompaña(ritmo de zamba).

   Am                F
E)---8-7-8-----4-5-7-8-7-8--|
B)-5-------5-7--------------|
G)--------------------------|

             G             C
E)-----4-5-7-8-7-5---5-------|
B)-5-7-------------8---8---5-|
G)-----------------------7---|


       Bº        E7
E)-12-10-12-13-----|
B)-------------12--|
G)-----------------|

       F
E)-10----10-12------|
B)----13-------10---|
G)------------------|

        C        E7
E)----------12-------|
B)-13-12-13----13-12-|
G)-------------------|

E)------------------|
B)-10---------------|
G)------------------|
   Am
E)------------------|
B)-----1-------1----|
G)---2---2---2---2--|
D)------------------|
A)-0-------0--------|
E)------------------|

Verso 1

Am               Dm             E7
Tal vez asi sea mejor para los dos
    F                        G
no dudes en buscarme cuando mas me necesites
     C                     Bº
no olvides que llevaste mi alma en este viaje,
     F                     E7
no olvides que mi amor se muere por buscarte
           F          G                     Am
a donde estes, con quien estes, por donde estes.


Acompañamiento verso 1
   Am              Dm
E)----------------------------------|
B)-----1-------1-------3-------3----|
G)---2---2---2---2---2---2---2---2--|
D)-----------------0-------0--------|
A)-0-------0------------------------|
E)----------------------------------|
   E7              F
E)---------0---------------1--------|
B)-----0-----0---0------1----1---1--|
G)---1---1-----1-----2---2-----2----|
D)----------------------------------|
A)----------------------------------|
E)-0---------------1----------------|
   G               C
E)---------3---------------0--------|
B)-----3-----3---3-----1-----1---0--|
G)---4---4-----4-----0---0-----0----|
D)----------------------------------|
A)-----------------3----------------|
E)-3--------------------------------|
   Bº              F
E)-------------------------1-------|
B)---------3-----------1-----1---1-|
G)-----2-------2-----2---2-----2---|
D)---3---3---3---3-----------------|
A)-2-------------------------------|
E)-----------------1---------------|
   E7            F
E)-------------0-------------------|
B)-----0---------------------1-----|
G)---1---1---1-------2---2---------|
D)-----------------3---3---3-------|
A)---------------------------------|
E)-0-------0-----1-----------------|

    G              Am
E)---------3--------0--------------|
B)-----0-----0---0--1--------------|
G)---0---0-----0----2--------------|
D)------------------2-rasgueo------|
A)------------------0--------------|
E)-3-------------------------------|


Verso 2
Am                     Dm              E7
Tal vez asi encuentres de nuevo un amor
    F                      G
Lo mágico, lo bello, el sentido de la vida
  C                   Bº              E7
Decime vos a donde fueron con el tiempo,
   F                   E7
Decime vos que hago ahora con este infierno
             F            G              Am
Si ya no estas, sino vendrás, ¿donde estaras?

Estribillo.

C             G        F              E7
 Ya me voy cantando quiero guardar tu vos
     F                         G
Que me acompañe siempre donde quiera que yo vaya
      C                   Bº              E7
No olvides de las cosas simples que vivimos
      F                   G#º             E7
No olvides que siempre puedes contar conmigo
               F            G             Am
Aun que no estes, me acercare, a donde estes.


Acordion y engancha con la intro.

E)-5--0--------|
B)------3-1-0--| Am (rasgueo)


Violin en el verso 2 y 4 y estribillo.

Aquí hace una nota por cada cambio de acorde.

    Am    Dm   E7     F    G      C    BºE7
E)--5--|--5--|--4--|-----|--3--|--0--|-----|
B)-----|-----|-----|--6--|-----|-----|--3--|
G)-----|-----|-----|-----|-----|-----|-----|
D)-----|-----|-----|-----|-----|-----|-----|
    F     E7    F     G   Am
E)-----|-----|-----|-----|-----4-5-7--|
B)--1--|--0--|-----|-----|---7--------|
G)-----|-----|--2--|--0--|-2----------|
D)-----|-----|-----|-----|------------|

Estribillo

    C     G     F     E7   F
E)--8--|--7--|--5--|--4--|-------1--------|
B)-----|-----|-----|-----|-----1---1------|
G)-----|-----|-----|-----|---2-------2-|--|
D)-----|-----|-----|-----|-3--------------|
   G               C    BºE7   F   G#ºE7
E)-3------------|--8--|--7--|--5--|--4--|
B)---3-------3--|-----|-----|-----|-----|
G)-----4---4----|-----|-----|-----|-----|
D)-------5------|-----|-----|-----|-----|

    F     G     Am
E)--5--|-----|--5--|
B)-----|--8--|-----|
G)-----|-----|-----|
D)-----|-----|-----|


Repite intro.

Verso 3

Tal vez asi vuelva rendido a tu portal
Andando en esta huella ya cansado del camino
Yo guardo una esperanza como un viejo amigo,
Yo guardo tu mirada que se va conmigo
A donde este, con quien estes, por donde estes.

Verso 4
Tal vez asi vuelva a cantar vieja ilusión
Me voy con mi guitarra por el Rio de la Plata
Buescando el orisonte y poder arrancarte
Ya no puedo olvidarte si estas en mi
Como un puñal, clavada estas, en mi cantar.

Repite estribillo.

Final
     F    G     Am
E)-----|-----|-----|
B)-----|-----|-----|
G)-----|--0--|--2--|
D)--3--|-----|-----|

E)-5-------4-------5----------------|
B)----------------------------------|
G)----------------------------------|
   Dm       E7     Am
E)-------1-------0---------0--------|
B)-----3-------0-------1-------1----|
G)---2-------1-------2---2---2---2--|
D)-0--------------------------------|
A)-----------------0----------------|
E)---------0------------------------|


E)-5-------4-------5----------------|
B)----------------------------------|
G)----------------------------------|
   Dm       E7     Am
E)-------1-------0---------0-----5--|
B)-----3-------0-------1-------1-5--|
G)---2-------1-------2---2---2---5--|
D)-0-----------------------------4--|
A)-----------------0-------------0--|
E)---------0------------------------|


Ojala les guste.
Esta bella canción se la dedico a mi amiga
Luisina Broggi, que juntos la tocamos en una audición?

ACORDES
    EbGDAE
Am  x02210
Dm  xx0231
E7  020100
F   133211
G   320003
C   x32010
Bº  x2323x
G#º 4xx43x

            
            
Suggest correction
Creating personal tab
Creating personal tab
You can edit any tab online and save it as your Personal.

You can edit, replace or remove any tab part or add personal notes – all changes will be seen only by you.

Personal tabs can be accessed anytime from any device, even offline.
Learn more »
Give kudos to tab author, rate the tab!
1 2 3 4 5
comments
print report bad tab
guest
Wanna post a correction for this tab? Suggest correction