Oops, an error
Loading. Please wait.

El Asesino De La Ilusión tab

version 1
version 1

Whole song

42 views 1 this week
no commentswrite comment
1 2 3 4 5
3 more votes to show rating
add to favorites
×
Save as Personal and add changes to this tab that will be seen only by you. Learn more ›
×
You can save this tab as Personal to edit and correct it or add notes. All changes will be seen only by you. Learn more »
launch autoscroll
font size
0
reset
how to read this tab
guitar tuner
edit
Autoscroll
slow
fast
+/-
esc
set tempo
stop
Ni voz ni voto
El asesino de la ilusión 

En primer lugar la canción la tengo en casette y no tengo un parte del riff inicial pero
ya se ubican mas o menos y se sacan una pequeña parte que es lo que va antes de
este riff:

Intro:

e----------------------------------------------------------------------------
B-7---4-5-7-5-4-4-5-4----4-5-7-5-4-5-4-2-0----9--7-5-4h5p4-2---9-7---7-7-7-9-
G----------------------------------------------------------------------------


Inicia en la parte:

 Sé mi tiempo una estación, sé mi tiempo en mi rincón, uhh sólo una canción de ti...;

 donde los acordes acordes son: B5, F#5, G#5, E5; en el acorde F5 se hace un punteo así:

 D----------------------
 A------2-4-----1-4-6---
 E--0-4--------2---------

Riff 1:

e----------------------------------      -----> 2 veces  
B----------7-9-7-5---4-5-4-2---7---
G--4-3-1---------------------------

En la parte:

 ..... cuando las noches de fusilamiento ----> se siguen tocando los mismo acordes pero la 1era guitarra toca:


G--4-4-4-4-4-4-4---6-6-6-6-6-6-6---4-6-8---6-4---8-6--
D--4-4-4-4-4-4-4---6-6-6-6-6-6-6---4-6-8---6-4---8-6--
A--2-2-2-2-2-2-2---4-4-4-4-4-4-4---2-4-6---4-2---6-4--
E-----------------------------------------------------

Riff 1 (2 veces)

Riff 2:

e-------------------------------------------
B-12-14-16---14-16---14-16-17---4-5-4-2---7-
G-------------------------------------------

e-19---18-19-18-16---14-16-14-12---11-12-11-9---14---18--
B--------------------------------------------------------
G--------------------------------------------------------

Luego en la parte :

... la sonrisa más letal, el recuerdo más mortal...---> cambian los acordes a:
(D5, C#5, B5, A5, G5, F#5, EG-6-6-6-6-6-6---5-5-5-5-5-5---3-3-3-3-3-3-----------------------------------------
D-6-6-6-6-6-6---5-5-5-5-5-5---3-3-3-3-3-3---6-6-6-6-6-6---4-4-4-4-4---3-4-3-1---6-
A-4-4-4-4-4-4---3-3-3-3-3-3---1-1-1-1-1-1---6-6-6-6-6-6---4-4-4-4-4---3-4-3-1---6-
E-------------------------------------------4-4-4-4-4-4---2-2-2-2-2---1-2-1-----4-


Riff 3:

e-15-13-12-13---15-13-12-15-13-12h13p12---------------------------------------------
B--------------------------------------13---13-13-13---13-13/15---15-15-17-15-13-15- --->3 veces
G-----------------------------------------------------------------------------------

luego:

e15-13-12-13---15-13-12-15-13-12h13p12-------------------------
B-------------------------------------13--13-13-13--13-13/15---
G--------------------------------------------------------------

e-------------------------------------------------------
B--15-15-17-15-15---17-15-15---17-15-17-18-17-15-13-----
G-------------------------------------------------------

Cualquier duda, sugerencia o si quieren alguna otra tablatura me escriben a
 forever_ch2000 @

            
            
Suggest correction
Creating personal tab
Creating personal tab
You can edit any tab online and save it as your Personal.

You can edit, replace or remove any tab part or add personal notes – all changes will be seen only by you.

Personal tabs can be accessed anytime from any device, even offline.
Learn more »
Give kudos to tab author, rate the tab!
1 2 3 4 5
comments
print report bad tab
guest
Wanna post a correction for this tab? Suggest correction