Oops, an error
Loading. Please wait.

El Asesino De La Ilusión tab

version 2
version 2

Whole song

32 views 1 this week
no commentswrite comment
1 2 3 4 5
3 more votes to show rating
add to favorites
×
Save as Personal and add changes to this tab that will be seen only by you. Learn more ›
×
You can save this tab as Personal to edit and correct it or add notes. All changes will be seen only by you. Learn more »
launch autoscroll
font size
0
reset
how to read this tab
guitar tuner
edit
Autoscroll
slow
fast
+/-
esc
set tempo
stop
InTro:

e-------------------------------------------------------------------------
B-7~-4-5-7-5-4-5-4~--4-5-7-9-7-5-4-5-4-2~--9-7-5-4-5-4-2~--9-7-5-4-5-4-7~-
G-------------------------------------------------------------------------
D-------------------------------------------------------------------------
A-------------------------------------------------------------------------
E-------------------------------------------------------------------------


e------------------------------------------------------------------------
B--4-5-7-5-4-5-4~--4-5-7-5-4-5-4-5-2~--9-7-5-4-5-4-2~--9-7~-777-9~~------
G------------------------------------------------------------------------
D------------------------------------------------------------------------
A------------------------------------------------------------------------
E------------------------------------------------------------------------


     B5                          F#5
Sobra un tiempo en la estación
                        G#5
sobra un tiempo en mi rincón
          E             F#5  B5 A#5 G#5 B5
un solo una canción por ti
     B5                                     F#5
tus pasos tu aroma tu viento tu voz
                   G5#
y nunca un adiós
            E            F#5
un solo una canción por ti
E             F#5
tu sombra evitaré
B5      F#5        G#5
la sonrisa mas letal
D#5                           E5
el recuerdo mas mordaz
D#5           C#5
la danza mas fatal
F#5               B5
la que escribe tu voz
    F#5                 G#5
no puedo amarte así
D#5                   E5
no puedo verte asi
D#5             C#5           F#5
un cumulo de himnos de ayer
B5                                           F#5
las tardes de muertos eclipsan el mar
                    G#5
y los deudos callaran
                  E5    F#5
su rabia y todo es por ti
B5                                           F#5
en tanto en las noches de fusilamientos
                G#5
gente desaparecerá
E5              F#5
en dónde estan
E5                  F#5
so pretexto de vida
               B5
so pretexto de paz
         F#5          G#5
so pretexto de amar
         D#5            E5
so pretexto de luchar
 D#5            C#5     F#5      B5
mentiras nada mas la que escribe tu voz
     F#5              G#5
no puedo amarte asi
             D#5         E5
pero espero verte aqui
D#5           C#5        F#5
un cumulo de himnos de ayer
            B5 F#5 G#5 D#5 E5 D#5 C#5 F#5
y sin tu voz....  nonono,

[repetir intro]

E5       F#5
tu sombra evitare
E5        F#5
tu nombre escupiré


C#5  G#5         A#5
la sonrisa mas letal
      F5           F#5
el recuerdo mas mortaL
      F5            D#5    G#5
la danza mas fatal
         C#5
la que escribe tu voz
       G#5              A#5
no puedo amarte asi
        F5           F#5
pero espero verte alli
    F5       D#5       G#5          C#5
un cumulo de himnos de ayer y sin tu voz
         G#5             A#5
te cubriras en un disfraz
        F5            F#5
haras tu gesto mas mordaz
      F5              D#5
toda la insensibilidad
     G#5             C#5
el asesino del amor
          G#5          A#5
un criminal en un diván
      F5            F#5
un criminal en un desvan
        F5            D#5
un criminal en un sedan
       G#5     C#5 G#5 A#5 F5 F#5 F5 D#5 G#5
el asesino de la ilusioooooohhhhhhhooon
       G#5     C#5 G#5 A#5 F5 F#5 F5 D#5 G#5
del amooooooooooooooooooooor
       G#5    C#5 G#5 A#5 F5 F#5 F5 D#5 G#5
laaaralaalaaraaaaaaaaaleeeehhhhhhhh
       G#5     C#5 G#5 A#5 F5 F#5 F5 D#5 G#5
laaaaaaraaaahhh laaahhhhhhhh  ahhhhhhhhhh
       G#5     C#5 G#5 A#5 F5 F#5 F5 D#5 G#5
                          oh oh ohhhh..!!
       G#5     C#5 G#5 A#5 F5 F#5 F5 D#5 G#5
                          oh oh ohhh..!!
       G#5     C#5 G#5 A#5 F5 F#5 F5 D#5 G#5
                          oh oh ohh..!!
       G#5     C#5 G#5 A#5 F5 F#5 F5 D#5 G#5

        F5     F#5      G#5..

[PLANCHAS..!!]     F#5 F#5 F#5  F5..


Quintaz..!! [PaRa qUe eNTieNDaZ xQ eL 5 aL FiNaL dE LaZ NoTaZ]


e----------------------------------------------------------------
B----------------------------------------------------------------
G----(2)-----(3)------(4)-------(5)------(6)-------(7)-------(8)-
D-(7)-2---(8)-3----(9)-4----(10)-5---(11)-6----(12)-7----(13)-8--
A--7--0----8--1-----9--2-----10--3----11--4-----12--5-----13--6--
E--5-------6--------7--------8--------9---------10--------11-----
      A    A#/Bb       B        C       C#/Db       D       D#/Eb

e ------------------------------
B ------------------------------
G ------------------------------
D -(2)---(3)---(4)---(5)---(6)--
A --2-----3-----4-----5-----6---
E --0-----1-----2-----3-----4---
    E     F   F#/Gb   G   G#/Ab

NOTA: Zolo Ze ToCan LaZ CueRDaZ PiZaDaz..!!


eZo eZ Too..!!

ZaLuDoZ PaRa Toa La GeNTe dE La RiCHi..!!
ZoBreToo PaRa TaTi & CaRiTo..!!
TaMBieN Jessica Y Randolph (wiuuu)
PAZ[!]
manuel-xd@

            
            
Suggest correction
Creating personal tab
Creating personal tab
You can edit any tab online and save it as your Personal.

You can edit, replace or remove any tab part or add personal notes – all changes will be seen only by you.

Personal tabs can be accessed anytime from any device, even offline.
Learn more »
Give kudos to tab author, rate the tab!
1 2 3 4 5
comments
print report bad tab
guest
Wanna post a correction for this tab? Suggest correction