Oops, an error
Loading. Please wait.

Después De Tí ¿que? tab

38 views 1 this week
no commentswrite comment
1 2 3 4 5
3 more votes to show rating
add to favorites
×
Save as Personal and add changes to this tab that will be seen only by you. Learn more ›
×
You can save this tab as Personal to edit and correct it or add notes. All changes will be seen only by you. Learn more »
launch autoscroll
font size
0
reset
how to read this tab
guitar tuner
edit
Autoscroll
slow
fast
+/-
esc
set tempo
stop
Esta Cancion es muy buena y se toca con
capo en 1er traste OJO! Los acordes no
cambian aun con capo.
Espero les sirva !! good luck!

               C                  Am
 e|-----------------------------------0------
 B|--1-1-0-1-----1-3~----1-1-0-1-----1-------
 G|--0-0-0-0----0--------2-2-2-2----2--------
 D|------------2-------------------2---------
 A|--3---3----3----------0--------0----------
 E|------------------------------------------

            Dm                G7
 e|--1-1-0-1---3-3/1----------1---1---1------
 B|--3-3-3-3---3-3--3--------0-0---0---0-----
 G|-------------------2-----0---0---0---0----
 D|--0---0-----------------------------------
 A|------------------------------------------
 E|------------------------3--3---3---3------


C                           Dm
 Después de la tormenta la calma reinará,
G7                        C             RIF 1
  después de cada día la noche llegará,
Am                               Em
  después de un día de lluvia el sol se asomará,
   Dm               RIF 2    G7
y después de ti... ¿que?... después de ti... ¿que?.


C                            Dm
 Después de cada instante el mundo girará,
                        C                RIF 1
después de cada año más tiempo se nos va,
Am                                 Em           Em7
  después de un buen amigo, otro amigo encontrarás,
   Dm               RIF 2    G7
y después de ti... ¿que?... después de ti... ¿que?.


        C                Em7      Am          Em   Dm
   Después de ti no hay nada, ni sol ni madrugada,
                       G7
ni lluvia, ni tormenta,  ni amigos, ni esperanza,
     C                Em7      Am            Em    Dm
después de ti no hay nada, ni vida hay en el alma,
                       G7
ni paz que me consuele,  no hay nada si tu faltas...

Se vuelve a repetir el intro...
               C                  Am
 e|-----------------------------------0------
 B|--1-1-0-1-----1-3~----1-1-0-1-----1-------
 G|--0-0-0-0----0--------2-2-2-2----2--------
 D|------------2-------------------2---------
 A|--3---3----3----------0--------0----------
 E|------------------------------------------

            Dm                G7
 e|--1-1-0-1---3-3/1----------1---1---1------
 B|--3-3-3-3---3-3--3--------0-0---0---0-----
 G|-------------------2-----0---0---0---0----
 D|--0---0-----------------------------------
 A|------------------------------------------
 E|------------------------3--3---3---3------

C                                Dm
 Después de haber tenido, simpre vuelves a tener,
G7                              C             RIF 1
 después de haber querido lo intentas otra vez,
Am                      Em
   después de lo vivido siempre hay un después,
   Dm              RIF 2     G7
y después de ti... ¿que?... después de ti... ¿que?.


        C                Em7      Am          Em   Dm
   Después de ti no hay nada, ni sol ni madrugada,
                       G7
ni lluvia, ni tormenta,  ni amigos, ni esperanza,
     C                Em7      Am            Em    Dm
después de ti no hay nada, ni vida hay en el alma,
                       G7
ni paz que me consuele,  no hay nada si tu faltas...


                  C         Am
   Después de tiiiiiii... ¿que?,
            F    Fm      C
después de tiiiiiiii... ¿que?...


RIF 1    (Cambio de C para Am) Escuchen la cancion
 e|-------------
 B|----1--1--1--
 G|---0--0--2---
 D|--2--0--2----
 A|-3--2--0-----
 E|-------------

RIF 2   (Este RIF es en Dm)
 e|----3-3/1-----
 B|----3-3--3----
 G|----------2---

Una vez mas con mi colaboracion Aqui..
Cualquier duda, aclaracion o sugerencia
aqui mi correo
zeyks_fhigter@ Si quieren que
se las ensene ya saben que por Skipe en
Facebook 
agreguenme y yo les ayudo.

            
            
Suggest correction
Creating personal tab
Creating personal tab
You can edit any tab online and save it as your Personal.

You can edit, replace or remove any tab part or add personal notes – all changes will be seen only by you.

Personal tabs can be accessed anytime from any device, even offline.
Learn more »
Give kudos to tab author, rate the tab!
1 2 3 4 5
comments
print report bad tab
guest
Wanna post a correction for this tab? Suggest correction