Oops, an error
Loading. Please wait.

Entre Ella Y Tú tab

version 1
version 1

Whole song

7 views 1 this week
no commentswrite comment
1 2 3 4 5
3 more votes to show rating
add to favorites
×
Save as Personal and add changes to this tab that will be seen only by you. Learn more ›
×
You can save this tab as Personal to edit and correct it or add notes. All changes will be seen only by you. Learn more »
launch autoscroll
font size
0
reset
how to read this tab
guitar tuner
edit
Autoscroll
slow
fast
+/-
esc
set tempo
stop

  INTRO:

  e-----------0-------3-p---1---0------------------3--------1----1---1--------------------------3--
  b---------1-----------------------3---1---0-p------------1---------------3---1---0---0---1/2-----
  g-------0-----------------------------------------------2----------------------------------------
  D-----2------------------------------------------------------------------------------------------
  A---3--------------------------------------------------------------------------------------------
  E------------------------------------------------------------------------------------------------


  e-----------0-------3-p---1---0------------------3--3---3-------1----1---1---------------------------
  b---------1-----------------------3---1---0-p----3----3---3-----1----1---1--------3---1---0---0---1--
  g-------0-------------------------------------------------------2------------------------------------
  D-----2------------------------------------------0---------------------------------------------------
  A---3------------------------------------------------------------------------------------------------
  E----------------------------------------------------------------------------------------------------


      C               Em
   Entre ella y tu hay dos mundos
   F        G                C  A4 A7
   uno de amor y otro de egoismo
         Dm          G        C  A4  A7 
   no entiendo el porque de tus dudas
         Dm           Dm7         G
   si entre ella y tu hay un abismo

          C            Em
   Entre ella y tu, yo elegi
    F            G            C  A4 A7
   entre el infierno o el cielo 
     Dm          G            C  A4 A7
   poder ver la luz o ser ciego
     Dm                G
   poder respirar o ahogarme
     Dm                  G 
   poder ser yo mismo o nadie 
    
     F                 Em
   Entre ella y tu, entre ella y tu
        Em7             A4          A7
   no vale la pena ni hablar del tema
        Dm                  G
   tu amor ha quemado su huella
        Dm                  G
   prefiero ser tuyo que de ella
      G7          C
   entre ella y tu


              C          Em           
   Entre ella y tu quiero vivir
    F              G         C    A4  A7    
   de cara a la verdad y no de espaldas
      Dm      G       C    A4  A7
   ahora se ganar y perder
     Dm                    G  
   ahora se que quiero y a quien
        Dm                      G
   por tu amor hare lo que haga falta


   F                 Em
   Entre ella y tu, entre ella y tu
        Em7             A4          A7
   no vale la pena ni hablar del tema
        Dm                  G
   tu amor ha quemado su huella
        Dm                  G
   prefiero ser tuyo que de ella
     G7          C
   entre ella y tu

     Dm7          G
   Gracias a ti quiero vivir
     Dm7             Em          A4   A7 
   de cara a la verdad y no de espaldas
     Dm                G
   ahora se ganar y perder
     Dm                   G
   ahora se que quiero y a quien
 
     F               Em
   Entre ella y tu gracias a ti
      A4                A7
   ya se quien soy y a donde voy
   Dm                  G   
   ahora se ganar y perder
    Dm                      G
   ahora se que quiero y a quien
      Dm7       C     
   entre ella y tu
      G7          C  
   entre ella y tu
Suggest correction
Creating personal tab
Creating personal tab
You can edit any tab online and save it as your Personal.

You can edit, replace or remove any tab part or add personal notes – all changes will be seen only by you.

Personal tabs can be accessed anytime from any device, even offline.
Learn more »
Give kudos to tab author, rate the tab!
1 2 3 4 5
comments
print report bad tab
guest
Wanna post a correction for this tab? Suggest correction