Oops, an error
Loading. Please wait.

Quien Te Cantará tab

version 2
version 2

Whole song

49 views 1 this week
no commentswrite comment
1 2 3 4 5
3 more votes to show rating
add to favorites
×
Save as Personal and add changes to this tab that will be seen only by you. Learn more ›
×
You can save this tab as Personal to edit and correct it or add notes. All changes will be seen only by you. Learn more »
launch autoscroll
font size
0
reset
how to read this tab
guitar tuner
edit
Autoscroll
slow
fast
+/-
esc
set tempo
stop
Bueno no mando ninguna correccion
solo les recuerdo que ya cambie mi correo
a lili.v_hermocha18@
no me escriban ni me agreguen al anterior
"darkdurst_1988"
por fa amigos de lacuerda no se me enojen....;)


[INTRO]

E-|---------------------------2----2--------
B-|-----2-2--2--2-------2-2----2----2-------
G-|----2---2--2--2-----2---2---------2------
D-|---4-----4--4--4---2-----2----2----------
A-|--4---------------4----------------------
E-|-2---------------2-----------------------

[Lo que esta en parentesis va rasgueado]

  F#m     F#msus      C#  C#sus C#
  Ayer pense decirte adiós
E-|-----------------------4-----------------
B-|-----2-2-----2------7--------------------
G-|----2---2---2-2------6-------------------
D-|---4-------2------6----------------------
A-|--4-------4------4-----------------------
E-|-2---------------------------------------
   E
   y me falto el valor
E-|-------------------------------0---------
B-|----0----------------2--3--5-------------
G-|---1---1-------------1--2--4-4-----------
D-|--2-----2------------2--3--5--5----------
A-|-2---------------------------------------
E-|-----------------------------------------
   D                   Dsus        C# C#sus C# F#m_
   es que había en tus ojos tanto amor
E-|---------------------4--4--4-------(2)---
B-|----7-------5-------6-7--6--7-----(2)----
G-|---7--7----7--7----6---6--6--6---(2)-----
D-|--7----7--7----7--6-------------(4)------
A-|-5-------5-------4-------------(4)-------
E-|-----------------------------------------
             F#msus    C# C#sus C#
  _que fácil es decir adiós
E-|-----------------------4-----------------
B-|-----2-2-----2------7--------------------
G-|----2---2---2-2------6-------------------
D-|---4-------2------6----------------------
A-|--4-------4------4-----------------------
E-|-2---------------------------------------
   E
   que fácil olvidar
E-|-------------------------------0---------
B-|----0----------------2--3--5-------------
G-|---1---1-------------1--2--4-4-----------
D-|--2-----2------------2--3--5--5----------
A-|-2---------------------------------------
E-|-----------------------------------------
   D             Dsus        C# C#sus  C#
   que dificil será para los dos
E-|---------------------4--4--4-------------
B-|----7-------5-------6-7--6--7------------
G-|---7--7----7--7----6---6--6--6-----------
D-|--7----7--7----7--6----------------------
A-|-5-------5-------4-----------------------
E-|-----------------------------------------

             F#m  F#msus
¿Quién te cantará?
            C#   C#sus  C#
con esta guitarra
              F#m  F#msus
quien la hará sonar
               C#  C#sus  E
cuando no este yo
                 A      E
¿Quién dara a tú casa color?
       D       C#
y a tú lecho calor

¿Quién te hará el amor?

E-|-------4----2---4---(4)--(6)-(6)--------(4)-(4)-------(2)------
B-|---6---5----3---5--(5)--(7)---(7)------(5)---(5)-----(3)--2h3--
G-|---5---4----2---4-(4)--(6)-----(6)----(4)-----(4)---(2)------2-
D-|----------------------(8)-------(8)--(6)-------(6)-(4)--------4
A-|-5---4----2---4------(6)-----------(4)------------2)-----------
E-|---------------------------------------------------------------

   F#m        F#msus    C# C#sus C#
  ¿Quien tachara mi dirección?
E-|-----------------------4-----------------
B-|-----2-2-----2------7--------------------
G-|----2---2---2-2------6-------------------
D-|---4-------2------6----------------------
A-|--4-------4------4-----------------------
E-|-2---------------------------------------
   E
   de tú libreta azul
E-|-----------------------------------0-----
B-|--------0---------------2--3--5----------
G-|------1-----1-----------1--2--4-4--------
D-|--2-----------2---------2--3--5--5-------
A-|-2---------------------------------------
E-|-----------------------------------------
   D                Dsus          C# C#sus C# F#m_
   archivando mi historia en un cajon
E-|---------------------4--(4)--4--(4)--4--(2)------
B-|----7-------5-------6-7--(6)--7--(6)--7--(2)-----
G-|---7--7----7--7----6------(6)-----(6)-----(2)----
D-|--7----7--7----7--6------------------------(4)---
A-|-5-------5-------4--------------------------(4)--
E-|---------------------------------------------(2)-
                F#msus         C# C#sus C#
   _¿y tú que harás? ¡¿adonde iras?!
E-|-----------------------4-----------------
B-|-----2-2-----2------7--------------------
G-|----2---2---2-2------6-------------------
D-|---4-------2------6----------------------
A-|--4-------4------4-----------------------
E-|-2---------------------------------------
   E
   tal vez me olvidaras
E-|-------------------------------0---------
B-|----0----------------2--3--5-------------
G-|---1---1-------------1--2--4-4-----------
D-|--2-----2------------2--3--5--5----------
A-|-2---------------------------------------
E-|-----------------------------------------
   D               Dsus           C# C#sus C#
   y pondras mi guitarra en un rincon
E-|---------------------4---------(4)(4)----------(4)(4)-----------(4)
B-|----7-------5-------6-7-------(6)--(6)--------(6)--(6)---------(6)-
G-|---7--7----7--7----6---6-----(6)----(6)------(6)----(6)-------(6)--
D-|--7----7--7----7--6---------(6)------(6)----(6)------(6)-----(6)---
A-|-5-------5-------4---------(4)--------(4)--(4)--------(4)---(4)----
E-|--------------------------(4)----------(4)(4-----------(4)(4)------

Coro

             F#m  F#msus
¿Quién te cantará?
            C#   C#sus  C#
con esta guitarra
              F#m  F#msus
quien la hará sonar
               C#  C#sus  E
cuando no este yo
                 A      E
¿Quién dara a tú casa color?
       D       C#
y a tú lecho calor

¿Quién te hará el amor?

[D#m7, C#m7, Bm7]

[Se repite el coro una vez más]


ACORDES  654321

F#m      244222
F#msus   242222
C#       446664
C#sus    446674
D        000232
Dsus     000230
A        002220
E        022100
D#m7     668676
C#m7     446454
Bm7      224252

            
            
Suggest correction
Creating personal tab
Creating personal tab
You can edit any tab online and save it as your Personal.

You can edit, replace or remove any tab part or add personal notes – all changes will be seen only by you.

Personal tabs can be accessed anytime from any device, even offline.
Learn more »
Give kudos to tab author, rate the tab!
1 2 3 4 5
comments
print report bad tab
guest
Wanna post a correction for this tab? Suggest correction