Oops, an error
Loading. Please wait.

Todo A Pulmón tab

version 3
version 3

Whole song

28 views 1 this week
no commentswrite comment
1 2 3 4 5
3 more votes to show rating
add to favorites
×
Save as Personal and add changes to this tab that will be seen only by you. Learn more ›
×
You can save this tab as Personal to edit and correct it or add notes. All changes will be seen only by you. Learn more »
launch autoscroll
font size
0
reset
how to read this tab
guitar tuner
edit
Autoscroll
slow
fast
+/-
esc
set tempo
stop
Intro       Riff 1

Riff 1
       E                   A           Am          E      A    B/A
e------------------------------------------------------0----0-----0--
B--------------------------2---0h2p0----1----1h0------0---2----2/4---
G------1---1---1h2-2p1-------2-------2----2-----2----1---------------
D-2h4----2---2---------2-------------------------2-------------------
A-----------------------2--0------------0-----------------0----0-----
E------0-------0------------------------------------0----------------
    E         A
e---0------0------
B------0----0-2---
G--------1--------
D-----------------
A-------------0---
E---0-------------

       E           A
Qué difícil se me hace,
      E              A
mantenerme en este viaje,
       E          C#m7         F#   Riff 2
sin saber a dónde voy en realidad.
          A          B/A                            B/A    X04440
Si es de ida o de vuelta,
           E          C#m7
si el furgón es la primera,
      F#m         B           A  E
si volver es otra forma, de llegar.

Qué difícil se me hace,
cargar todo este equipaje,
se hace dura la subida al caminar.
Esta realidad tirana,
que se ríe a carcajadas,
porque espera que me canse, de buscar.

CORO
       E         E7         A            Am/C
Cada nota, cada idea, cada paso en mi carrera,
         E                    B  A
y la estrofa de mi última canción,
       E         E7          A           Am/C
cada fecha postergada, la salida y la llegada,
       E         A          Am/C            A  B          E  Riff 3
y el oxígeno de mi, respiración, todo a pulmón, todo a pulmón.


Que difícil se me hace,
mantenerme con coraje,
lejos de la tranza y la prostitución.
Defender mi ideología,
buena o mala pero mía,
      F#m        A            A5   E
tan humana como la, contradicción.

Qué difícil se me hace,
seguir pagando el peaje,
de esta ruta de locura y ambición.
Un amigo en la carrera,
una luz y una escalera,
        F#m           A  B/A     A  E
y la fuerza de hacer todo, a pulmón.

CORO

           E       A           Am/C    /B        A Am/C        Riff 4
...y el oxígeno de mi, respiración, y todo a pulmón, todo a pulmón.

Riff 2
   F#
e-----------------2------
B---------2-------2------
G-----3h4---4--3--3------
D-----------------4------
A------------------------
E--2--2--------2---------

Riff 3
   E         E7        A        Am/C       E          A   B/A
e---------0-----0---0------0----------0----------0-----0------0-----
B------0-0--3------3---2----2-------1--1------0---0---2---2/4--4----
G-----1-1------1--1-------2--2-----2----2----1-----1------------4---
D----2--------2-----------------------------------------------------
A---2------------------0--------3---------------------0---0---------
E--0--------0------------------------------0------------------------
     E         A
e--------------0--
B------0-------2--
G------1h2p1---2--
D------2-------2--
A----2---------0--
E--0--------------

Riff 4   (Riff 3 Rasgueado hasta el segundo E y después lo mostrado)
    A     B        E
e------0--2---2----0--
B--2-------4-------0--
G---2-------4------1--
D----2-------------2--
A--0------2--------2--
E------------------0--

            
            
Suggest correction
Creating personal tab
Creating personal tab
You can edit any tab online and save it as your Personal.

You can edit, replace or remove any tab part or add personal notes – all changes will be seen only by you.

Personal tabs can be accessed anytime from any device, even offline.
Learn more »
Give kudos to tab author, rate the tab!
1 2 3 4 5
comments
print report bad tab
guest
Wanna post a correction for this tab? Suggest correction