Oops, an error
Loading. Please wait.

Todo Me Recuerda A Tí tab

version 2
version 2

Whole song

40 views 1 this week
no commentswrite comment
1 2 3 4 5
3 more votes to show rating
add to favorites
×
Save as Personal and add changes to this tab that will be seen only by you. Learn more ›
×
You can save this tab as Personal to edit and correct it or add notes. All changes will be seen only by you. Learn more »
launch autoscroll
font size
0
reset
how to read this tab
guitar tuner
edit
Autoscroll
slow
fast
+/-
esc
set tempo
stop
Esta es otra transcripción mía, no encontré mi disco, así que algunas cosas las puse
de como me acordé de la canción, pero lo malo es que algunas de a tiro
que no me acordé ni ma...íz, me faltan algunos arreglos, corregir algunas cosas
y un acorde que va al final de la canción; fuera de eso la canción está muy bien.

  (COMO DE COSTUMBRE)       ¡Te quiero Stephanie!  ARRIBA EL ATLANTE

Intro:

e||-----------5--4--2--0-------2------------1-0--------------------|
B||----------------------2----3--3---------1----3---0-2------------|
G||-------2------------------2-----2------2-------2-----2----------|
D||-----2-------------------0------------0----------------2--------|
A||---0------------------------------------------------------------|
E||----------------------------------------------------------------|


e||-----5--4--2--0-------2----------1-0---------------------------0--|
B||----2-----------2----3--3-------1----3--1-0------------0---0h2----|
G||---2----------------2-----2----2-------------2-2---1h2---2--------|
D||-------------------0----------0-----------------------------------|
A||------------------------------------------------------------------|
E||------------------------------------------------------------------|


VERSO:

Riff*
e|------------------------------------------------------|
B|--------2---0---0-----5----5---4---5------------------|
G|--------2---2---2-----4----4---4---4------------------|
D|------2---2---2---2------6---6---6---6----------------|
A|----0-----------------4-------------------------------|
E|------------------------------------------------------|

        Cuando me dicen que tal les va

Riff**
e|--------2---------2---------2-------------0-----------|
B|--------3---------3---------3-------------0-----------|
G|------2---2-----2---2-----2---2--------1-----1--------|
D|----0-------------------------------------------------|
A|--------------4---------2-----------------------------|
E|------------------------------------0-----------------|

       Como explicarles que ya no se ni donde estas,

Riff*-*
e|-----------------------------------------------------|
B|----2----2---0---0-----5----5---4---5----------------|
G|----2----2---2---2-----4----4---4---4----------------|
D|-------2---2---2---2------6---6---6---6--------------|
A|----0------------------4-----------------------------|
E|-----------------------------------------------------|

    Por que me tienen que hablar de ti

e|--------2---------2---------2--2--2--------0--0--0-----|
B|--------3---------3--------3--3--3--------0--0--0------|
G|------2---2-----2---2-----2--2--2--------1--1--1-------|
D|----0--------------------4--4--4--------2--2--2--------|
A|--------------4---------2--2--2--------2--2--2---------|
E|--------------------------------------0--0--0----------|

     Como decirles que te quiero olvidar.


Coro:
e|---------------0---------2---------2---|
B|-------2---0-----0-------3--------3-3--|
G|-------2-----0---------2---2-----2-----|
D|-----2---2-----------0-----------------|
A|---0---------------------------4-------|
E|---------------------------------------|

       Todo me recuerda a ti
                                  Riff:
                            e|-----------------0-----|
                            B|-------2/3------2------|
                            G|------2--------2-------|
                            D|-----2--------2--------|
                            A|-------------0---------|
     Bm7         E     A    E|-----------------------|

  Tu sombra sigue aquí


         A
Pues cada paso que doy

        C#m7
cada historia de amo-or

 Bm7        E        A
todo me recuerda a tí...


Bridge:

e|----------5--4--2--0-------2------------1-0-------------------------0---|
B|---------------------2----3--3--3------1----3-1-0-----------0---0h2-----|
G|-------2-----------------2-----2------2-----------2-2---1h2---2---------|
D|-----2------------------0------------0----------------------------------|
A|---0--------------------------------------------------------------------|
E|------------------------------------------------------------------------|


Verso 2: (Son mas o menos los mismos arreglos como el primer verso,
          así que les toca a ustedes sacarla más o menos como es)


    Riff*

Tu me enseñaste a comprender y aceptar

    Riff**

que de amor nadie muere, que es fácil olvidar    Riff: (antes de la sig. línea
                                                      suena así...) ||
                                                                    ||
                                                                    ||
                                                                   \  /
         Riff*-*
                                                   e|-----------------------|
                                                   B|---------0----2--------|
                                                   G|----1h2-------2--------|
    por eso quize refugiarme en ella,       D         D/C#        Bm7          E
pero cierro los ojos, y te siento en su piel...


        A     Asus2   D  D/C#     Bm7    E    A    (Riff)
  Todo me recuerda   a ti,     tu sombra sigue aquí,


                       A2       F#m         F#m/E
pues cada paso que doy,  cada historia de amo-or,


D          E       A2   A2/G#  A2/F#
todo me recuerda a tí-í...


   F#m             F#m/E             Bm   Bm7    D Esus  F#m
   Jamás te perdonaré que no pueda apartarte de mi-i,
              F#m/E              Bm7   D Esus   Esus4
jamás te perdonaré que no pueda volver a sentir...


        A      A2      D D/C#    Bm7    E    A    Asus
   Todo me recuerda a ti,    tu sombra sigue aquí,
                              F#m/E
pues cada paso que doy, cada historia de amo-or,
D           E       A Asus
todo me recuerda a tí...
           A                  F#m
pues cada paso que doy, cada historia de amo-or,
           D        E
incluso el aire... huele... a tí...


e||-----------5--4--2--0-------2------------1-0--------------------|
B||----------------------2----3--3---------1----3---0-2------------|
G||-------2------------------2-----2------2-------2-----2----------|
D||-----2-------------------0------------0----------------2--------|
A||---0------------------------------------------------------------|
E||----------------------------------------------------------------|


e||-----5--4--2--0-------2----------1-0------------|-----------|-----------------------------------0--|--5--|
B||----2-----------2----3--3-------1----3--1-0-----|-----------|--1-0------------------------0-0h2----|--2--|
G||---2----------------2-----2----2-------------2--|-ACORDE----|------2-0------------------2----------|--2--|
D||-------------------0----------0-----------------|--FALTANTE-|----------3-2-0----------2------------|--2--|
A||------------------------------------------------|-----------|----------------3-2-0--0--------------|--0--|
E||------------------------------------------------|-----------|--------------------------------------|-----|

                                                                                                       FINAL

ACORDES

D/C#        X 4 X 2 3 2
A2          X 0 2 2 0 0
Asus        X 0 2 2 3 0
F#m/E       2 4 2 2 2 2
A2/G#       4 0 2 2 0 0
A2/F#       2 0 2 2 0 0
Esus        0 2 2 2 0 0
Esus4       0 2 2 2 0 0


AGRDEZCO ALGUNAS COSAS DE LA TRANSCRIPCIÓN ANTERIOR, YA QUE TOMÉ ALGUNOS ACORDES
QUE YO NO HABÍA SACADO.

            
            
Suggest correction
Creating personal tab
Creating personal tab
You can edit any tab online and save it as your Personal.

You can edit, replace or remove any tab part or add personal notes – all changes will be seen only by you.

Personal tabs can be accessed anytime from any device, even offline.
Learn more »
Give kudos to tab author, rate the tab!
1 2 3 4 5
comments
print report bad tab
guest
Wanna post a correction for this tab? Suggest correction