Oops, an error
Loading. Please wait.

Trágate El Polvo De Los Demás tab

8 views 1 this week
no commentswrite comment
1 2 3 4 5
3 more votes to show rating
add to favorites
×
Save as Personal and add changes to this tab that will be seen only by you. Learn more ›
×
You can save this tab as Personal to edit and correct it or add notes. All changes will be seen only by you. Learn more »
launch autoscroll
font size
0
reset
how to read this tab
guitar tuner
edit
Autoscroll
slow
fast
+/-
esc
set tempo
stop
Trágate el polvo de los demás
Nicolás Lens

A: LAm-MIm
B: DOm-SOL-RE
C: LAm-DO-SOL-RE
D: FAm-SIm-LAm-SIm-LAm

Intro:
-------------------------------- -----------------
--------1----------3--------4--- ----4-----3----1-
------0---0------0---0----0---0- -0-0--0-0---0-0--
-------------------------------- -----------------
--3-----------5---------6------- -----------------
-------------------------------- -----------------

Em

--------------- -------------- ------------------
-----3--------- ---------3---- ---------3--------
---2---2------- --------2--2-- -------2----2-----
--------------- -------------- ------------------
--------------- -------------- -0--1-------------
-2------------- -2------------ ------------------

Intro-A:

(A)
El sueño ya no es de los demás
Es ahora cuando tienes que luchar...
Te aseguro que aquí no hay nadie
Para confiar
Te aseguro que aquí no hay nadie
Por quien luchar

Aquí no hay por quien vivir...
Aquí no hay por quien llorar...
(B)
(A)
Aquí siempre seré tu rival
Aquí no vas a encontrar,
Compañía para acompañar,
Solo para sacrificar
(E)
No les des el ejemplo a los demás
(B)-(C)

Y aquí no queda por quien luchar
Y aquí no queda a quien amar
Esto no es fantasía es realidad

Coro:
Trágate el polvo de los demás
Que ya no los puedes alcanzar...
Trágate el polvo de los demás
 Que si te adelantas tampoco lo sabrás

Intro.-(A)
(A)
Ahora sabes la verdad
Bienvenido a la realidad!!!

Y escuche ah un hombre decir
Con tristeza al hablar:

Hay una voz que no para de hablar
Y que me dice que puedo alcanzar
Ese sueño que yo quise armar
Ese que todavía no puedo realizar
-Se que tu lo alcanzaras, se que no me fallaras
...,
Mire su rostro y vi
Dos lagrimas salir

Ya su luz se le apago
No se arrepintió

Mejor morir muerto, que morir vivo...

Aquí lucha o no gastes lugar
Sigue tragando el polvo de los demás
Esto no es fantasía, es realidad

Coro:
Trágate el polvo de los demás
Que no los puedes alcanzar
Trágate el polvo de los demás
Que si los adelantas tampoco lo sabrás
(Bis)
A: LAm. -                        MIm
----------------------  --------------
-----------0----------  --2-----------
--2-----------------2-  ------------2-
-----2---2----2--2----  -----0---0---- (Bis)x3
-------1-------1------  -------0------
----------------------  --------------

B: DOm          SOL            RE
----------- ----------- -------------------
-3-------3- --2------2- --0--------0-------
----------- ----------- ------------------- (Bis)x2
----0------ ----0------ ----2---2----2---2-
------1---- ------0---- ------3--------3---
----------- ----------- -------------------

Intro
A-E-B

Cm LAm                     DO                        SOL                 RE
------------------  -----------------  -------------  ----------------
--0---------------  --3--------------  -2-----------  --0-------------
-----------2------  ----------2------  --------0----  -------0--------
------2-------2---  ----0-------0----  ----0-----0--  ----2----2------
--------1------1--  ------1--------1-  ------0-----0  ------3----3----
------------------  -----------------  -------------  ----------------


B-A-C-A

D-FAm           SIm                   LAm
--3--------   --------------  -------------
-----------   --2---------2-  ---0---------
-----------   --------------  ------------- (Bis) x4
-----3---3-   -----4--------  -----2----2--
-------2---   --------3-----  --------1----
-----------   --------------  -------------

Intro-A
(C)
No hables más
Que quiero callar

Morir es gratis
Nadie te lo impedirá...,
Te lo agradecerán

(A)
A veces quisiera algo más que soñar
......
Intro -A-B-
Intro-A//

            
            
Suggest correction
Creating personal tab
Creating personal tab
You can edit any tab online and save it as your Personal.

You can edit, replace or remove any tab part or add personal notes – all changes will be seen only by you.

Personal tabs can be accessed anytime from any device, even offline.
Learn more »
Give kudos to tab author, rate the tab!
1 2 3 4 5
comments
print report bad tab
guest
Wanna post a correction for this tab? Suggest correction