Oops, an error
Loading. Please wait.

No Puedo Estar Sin Tí tab

4 views 1 this week
no commentswrite comment
1 2 3 4 5
3 more votes to show rating
add to favorites
×
Save as Personal and add changes to this tab that will be seen only by you. Learn more ›
×
You can save this tab as Personal to edit and correct it or add notes. All changes will be seen only by you. Learn more »
launch autoscroll
font size
0
reset
how to read this tab
guitar tuner
edit
Autoscroll
slow
fast
+/-
esc
set tempo
stop
bueno ps esta muy buena rola de los nietos
espero y les guste

requinto
5-|------------------------------------------------------------
4-|------------------------------------------------------------
3-|----------------------------------------------------------3-
2-|--1-1-1-2-1-1--1-2-1-2-1-4-2-4-4-4-2-1-2--2-2-2-1-2-1-2-1-2-
1-|--0-0-0------------0-----3---3-3-3-1-0-1--1-1-1-0-1-0-1-0---

5-|-----------------------------------------------------
4-|--------------------------------------------------3-1
3-|--------3-2-2-2-3--3-1---3-------------3-3-1-0-1-0---
2-|--1-1-1-2-2-2-2--1-----4-2-4-4-4-2-1-2--1------------
1-|--0-0-0----------------3---3-3-3-1-0-1---------------

5-|-----------------------
4-|-----------------------
3-|-----------------------
2-|--9-9-9-8-9-8-9-8-6----
1-|--8-8-8-6-8-6-8-6-4----

A#                       F          A#
 sobre el agua veo el reflejo de tu cara
  D#                  F
 apesar de estar tan lejos
  A#              Gm
 te siento junto a mi
        Cm             F
 por las noches yo te sueño
      A#                Gm
 y despierto con mi almhoada
     Cm                F           A#  F
 la verdad es que no puedo estar sin ti
    A#           F             A#
 discutimos sin pensar nos ofendimos
      D#              F
 mira lo que son las cosas
              A#             Gm
 hoy que no estas no se que hacer
      Cm               F           A#  (arreglo1)
 la verdad es que no puedo estar sin ti
            A#
 escuchame amor
                 Gm
 lo que voy a decirte
              D#
 que sufro al saber
                F
 que no puedo sentirte
            A#
 escuchame amor
                     Gm
 pasa el tiempo y no acaba
           D#       (arreglo2)
 este amor que llego
                 A#
 y que nunca se apaga

 (aqui el requinto de arriba)

     A#           F
 dicutimos sin pensar
         A#
 nos ofendimos
      D#             F
 mira lo que son las cosas
            A#               Gm
 hoy que no estas no se que hacer
       Cm              F          A#   (arreglo1)
 la verdad es que no puedo estar sin ti
            A#
 escuchame amor
               Gm
 lo que voy a decirte
              D#
 que sufro al saber
               F
 que no puedo sentirte
            A#
 escuchame amor
                     Gm
 pasa el tiempo y no acaba
          D#        (arreglo2)
 este amor que llego
                  A#
 y que nunca se apaga

 fin------------------------------
5-|-------------------------------
4-|-------------------------------
3-|--------3-0-1------------------
2-|--1-1-1-2---1-9-9-9-8-4-6------
1-|--0-0-0-------8-8-8-6-2-4------


  arreglo 1                               arreglo 2
5-|---------------------         5-|---------------------
4-|---------3-3-3-3-----         4-|--------------3-1----
3-|--3------------------         3-|--3-3-1-0-1-0--------
2-|----1-2-3------------         2-|---1-----------------
1-|---------------------         1-|---------------------

 bueno ps ahi esta esa rola espero y les guste como suena
 esta cancion va dedicada para mi prima johana y su novio
 cesar que se mantienen peleando pero no se rajan jajaja
 bueno ahi si tienen sugerencias escribanme a mi correo
 pura famili iguez zor saludos al morrillo pedrillo

 el_cotan_chido@

            
            
Suggest correction
Creating personal tab
Creating personal tab
You can edit any tab online and save it as your Personal.

You can edit, replace or remove any tab part or add personal notes – all changes will be seen only by you.

Personal tabs can be accessed anytime from any device, even offline.
Learn more »
Give kudos to tab author, rate the tab!
1 2 3 4 5
comments
print report bad tab
guest
Wanna post a correction for this tab? Suggest correction