Oops, an error
Loading. Please wait.

Regálame La Felicidad tab

10 views 1 this week
no commentswrite comment
1 2 3 4 5
3 more votes to show rating
add to favorites
×
Save as Personal and add changes to this tab that will be seen only by you. Learn more ›
×
You can save this tab as Personal to edit and correct it or add notes. All changes will be seen only by you. Learn more »
launch autoscroll
font size
0
reset
how to read this tab
guitar tuner
edit
Autoscroll
slow
fast
+/-
esc
set tempo
stop
Intro:

e |-3-3-------3-2-0-3-------5-5-------5-3-2-2/5--|
B |-5-5-------5-3-1-5-------6-6-------6-5-3-3/6--|
G |-----0-0-0---------0-0------------------------|
D |-----------------------------7-7-7------------|
A |----------------------------------------------|
E |----------------------------------------------|


e |---------5-5----------5-5----------5-5---5/8-7--7--7-7--7-down-|
B |---5-5h6-6-6----5-5h6-6-6----5-5h6-6-6/8-----8--8--8-8--8-down-|
G |-7-------------------------7------------------------------------|
D |----------------------------------------------------------------|
A |----------------------------------------------------------------|
E |----------------------------------------------------------------|


e |-1-0------------------------------------------------------------------|
B |-----3-1-0-0h1-1-1-1--1-0-----------------------------1-0-3-1-5-3-6-5-|
G |--------------------------2-0-----------------0---2-0-----------------|
D |------------------------------3-2-0---2-0-3-2---3---------------------|
A |------------------------------------3---------------------------------|
E |----------------------------------------------------------------------|


e |--12/13--13---10/12--12---------------|
B |--13/15--15---12/13--13---------------|
G |--------------------------------------|
D |--------------------------------------|
A |--------------------------------------|
E |--------------------------------------|


*= manten la nota

e |-----------------------|
B |---1*------------------|
G |-0-----2-0-------------| x4 veces
D |-----------3-2-0-------|
A |-----------------3-----|
E |-----------------------|


     C
Emoción es la palabra
                                    G
Emoción es lo que siento al contemplarte
     F
Ilusión de que tu sientas
                               G
el deseo igual que yo de enamorarte


e |----------------------------|
B |----------------------------|
G |--2-0-2-0-2-0-2-0-2-0-2-0---|


 C
tienes tantas cosas bellas
                              G
son tus ojos la ventana de tu alma
       F
ellos dicen lo que calla
                                G
esa boca que me hace perder la calma


 C
que hayas desequilibrado
        Am
a este pobre corazón
        F                        G
que te pide solo un poco de tu amor


   C
regálame la felicidad
    F
prometo hablarte con la verdad
                Dm                G
no te voy a mentir voy hacerte feliz
               C      G
te voy a enamorar


   C
regálame la oportunidad
        F
de un cielo nuevo para volar
                 Dm                   G
donde solo hay amor, calor y comprensión
                 C     G  G  G  G  ----RASGUEOS
donde no llores mas


   " AQUI EL REQUINTO DE ARRIBA "


        C
yo se bien que tu me entiendes
                                     G
pues también se que has estado enamorada

e |--3/---8--7----3-1--------|
B |--5/---10-8----5-3--------|
G |--------------------------|
      F
pero como siempre pasa
                                    G
el amor si no es de dos pronto se acaba


       C
lo que no se acaba nunca
         Am                    F
es mi deseo de lograr que me des
                      G
tan solo una oportunidad


   C
regálame la felicidad
    F
prometo hablarte con la verdad
                Dm                G
no te voy a mentir voy hacerte feliz
               C      G
te voy a enamorar


   C
regálame la oportunidad
        F
de un cielo nuevo para volar
                 Dm                   G
donde solo hay amor, calor y comprensión
                 C
donde no llores mas


   C
regálame la felicidad
    F
prometo hablarte con la verdad
                Dm                G
no te voy a mentir voy hacerte feliz
               C    G  G  G  G  C --RASGUEOS ACABA EN C--
te voy a enamorar

            
            
Suggest correction
Creating personal tab
Creating personal tab
You can edit any tab online and save it as your Personal.

You can edit, replace or remove any tab part or add personal notes – all changes will be seen only by you.

Personal tabs can be accessed anytime from any device, even offline.
Learn more »
Give kudos to tab author, rate the tab!
1 2 3 4 5
comments
print report bad tab
guest
Wanna post a correction for this tab? Suggest correction