Oops, an error
Loading. Please wait.

Sos Botón tab

44 views 1 this week
no commentswrite comment
1 2 3 4 5
3 more votes to show rating
add to favorites
×
Save as Personal and add changes to this tab that will be seen only by you. Learn more ›
×
You can save this tab as Personal to edit and correct it or add notes. All changes will be seen only by you. Learn more »
launch autoscroll
font size
0
reset
how to read this tab
guitar tuner
edit
Autoscroll
slow
fast
+/-
esc
set tempo
stop
Esta Es Una De Mis Primeras Tablaturas No Se Si Los Punteos
Son 100% Correctos Pero Suenan Re Bien

RIFF :
e-------------------------3-2-3-2-3-2-3-2-3-2-----
B-3-2-3-2-3-2-3-2-3-2-------------------------5-3-
G---------------------4-2-------------------------
D-------------------------------------------------
A-------------------------------------------------
E-------------------------------------------------

e----------------------0--------------------4-2-0--
B-3-2-3-2-3-2-3-2-3-2-3---------------------------3
G-----------------------2-1-2-1-2-1-2-1-2-1--------
D--------------------------------------------------
A--------------------------------------------------
E--------------------------------------------------


LETRA CON ACORDES

D5(RE5)       A5(LA5)     G5(SOL5)
Policia sin chapa, sin uniforme
           D5(RE5)
igual de boton
SIGUE TODO EL TEMA IGUAL
Con un pase encima sos represivo
y sos dictador
Siempre discriminando
te vas afuera o vos no pasas
Yo te falto el respeto
porke me cago en tu autoridad

      A5(LA5)      D5(RE5)
Porque vos sos boton
      A5(LA5)      D5(RE5)
Porque vos sos boton
      A5(LA5)      D5(RE5)
poruqe vos sos boton
     G5(SOL5)    A5(LA5)    D5(RE5)   A5(LA5)
sos boton sos boton sos boton


AGUANTE NIHILISMO UNDER PUNK ROCK
AGUANTE FLEMA, DOS MINUTOS, CADENA, BULLDOG, MUNDO INSANO,
SUPERUVA, Y TODO EL PUNK ROCK

            
            
Suggest correction
Creating personal tab
Creating personal tab
You can edit any tab online and save it as your Personal.

You can edit, replace or remove any tab part or add personal notes – all changes will be seen only by you.

Personal tabs can be accessed anytime from any device, even offline.
Learn more »
Give kudos to tab author, rate the tab!
1 2 3 4 5
comments
print report bad tab
guest
Wanna post a correction for this tab? Suggest correction