Oops, an error
Loading. Please wait.

La Caraqueña tab

138 views 1 this week
no commentswrite comment
1 2 3 4 5
2 more votes to show rating
add to favorites
×
Save as Personal and add changes to this tab that will be seen only by you. Learn more ›
×
You can save this tab as Personal to edit and correct it or add notes. All changes will be seen only by you. Learn more »
launch autoscroll
font size
0
reset
how to read this tab
guitar tuner
edit
Autoscroll
slow
fast
+/-
esc
set tempo
stop
Es un tema muy lindo ay les va..
se va la primerita!!

Intro:
primero comienza la punteada y le sigue

                              A
E -12-12-12-------------------12-
B ------------14-12--------------
G -------------------14-11-14----
D -------------------------------
A -------------------------------
E -------------------------------

                                F#m
E -12-12-12------------------------
B ------------14-12-14-12----------
G ---------------------------14-11-
D ---------------------------------     se repiten estos dos una vez mas
A ---------------------------------
E ---------------------------------


luego
   E                             A          E                   F#m
E -------------------------------12--14-14-14-12-----12------------
B --------------------14-12-14--------------------14----14-12------
G ------------11-14---------------------------------------------11-       x2
D -14-14-14--------------------------------------------------------
A -----------------------------------------------------------------
E -----------------------------------------------------------------


   E  F#m     E  F#m
       desafío
E -13-14------13-14--
B -------------------
G -------------------
D -------------------
A -------------------
E -------------------


F#m
Qué lejos estoy, qué lejos estoy
   E       A
de mi ansiedad,
Bm         A                )
mi río, mi flor,            )
         E             F#m  ) (Bis)  solo la parte marcadas con ")"
mi cielo, llorando estarán  )


Pero he de volver, no llores mi amor,
no llores mi amor,
nadie le pondrá             )
murallas a nuestra verdad   ) [Bis]


E                 A
Nunca el mal duro cien años
        E          A
ni hubo cuerpo que resista
E              A                  )
ya la pagarán, no llores prenda   )
E          F#m                    ) (Bis)
pronto volveré                    )

F#m  E  A  Bm  A  E  F#m    igual que LA estrofa
larailailailai....
E              A
ya la pagarán, no llores prenda
E          F#m
pronto volveré


¡¡¡¡¡OJO!!!!!!
Suena mejor si en los BIS cambian
"A" por 577655
"E" por 043403
toquenla asi y vean la diferencia, les va a gustar
¡¡¡¡¡OJO!!!!!

Es te tema va dedicado para todos los chapacos que estan fuera del pago
con mucho cariño. Un abrazo desde tierra chapaca

Saludos a mi padre Delfor, mi madre Nola
y a mis hermanos Joel y Joan Rocha Montero, los quiero muchísimo

cualquier duda me escriben
a jos_rm@

se cuidan, un fuerte abrazo desde Tarija

            
            
Suggest correction
Creating personal tab
Creating personal tab
You can edit any tab online and save it as your Personal.

You can edit, replace or remove any tab part or add personal notes – all changes will be seen only by you.

Personal tabs can be accessed anytime from any device, even offline.
Learn more »
Give kudos to tab author, rate the tab!
1 2 3 4 5
comments
print report bad tab
guest
Wanna post a correction for this tab? Suggest correction