Oops, an error
Loading. Please wait.

Leonor tab

34 views 1 this week
no commentswrite comment
1 2 3 4 5
3 more votes to show rating
add to favorites
×
Save as Personal and add changes to this tab that will be seen only by you. Learn more ›
×
You can save this tab as Personal to edit and correct it or add notes. All changes will be seen only by you. Learn more »
launch autoscroll
font size
0
reset
how to read this tab
guitar tuner
edit
Autoscroll
slow
fast
+/-
esc
set tempo
stop
F#m
12 de la noche es mi cuerpo que tiembla
D
es por tu silueta, son tus caderas
A                                C#7
¡ay que ojos más lindos tienes tú!
F#m                                         D
quisiera tomar todo lo que me das sin ni siquiera
                       A              C#7
pensar en que pasará mañana con este amor.

Solo:

B|-2*1-1----------3h5*3-3----------2-2-2-2p1-1----------3h5-3-3-3-5-3-3-3
G|-------2-2-2-2-2---------4-4-4-4-4-------------2-2-2-2-2---------------

e|-9-9-9-9-10-9-7-7h9-5-7-4-4-4h5p4-4---4---4---4h5-4-2*-----------------
B|------------------------------------5---5---5---------3h5-3-3-3-5-3-3-3

F#m?E          *: se repite muchas veces

F#m                                             D
Después de unas cuantas cervezas los fantasmas
                        A                C#7
En tu cabeza te hacen llorar, te hacen llorar
F#m
pretende no ser eterna la noche
   D                             A             C#7
la promesa, un nuevo amor para olvidar, para olvidar

Coro:

F#m        E
noo ohh, Leonor
               D
no no no no no noo ohhh
F#m        E
noo ohh, Leonor
               D
no no no no no noo ohhh

A|---4-0-2-2-0---------4-0-2-2-0---------4-0-2-2-0--------
E|-2-----------0-1-2-2-----------0-1-2-2-----------0-1-2-2

A|-4-3-3-2-0-2--------
E|-------------0-1-2-2

F#m?E

F#m
Yo se porque odias tanto a tus padres,
D                                       A            C#7
te escondieron cuando fracasaste en el amor, en ese amor
F#m
Y esa vida sin culpa abortaste
D                                A             C#7
Eso fue decisión de tu madre, te dijo, es lo mejor


F#m        E
noo ohh, Leonor
               D
no no no no no noo ohhh
Fm         E
noo ohh, Leonor
               D
no no no no no noo ohhh

F#m        E
noo ohh, Leonor
               D
no no no no no noo ohhh
F#m        E
noo ohh, Leonor
               D
no no no no no noo ohhh

A|---4-0-2-2-0---------4-0-2-2-0---------4-0-2-2-0--------
E|-2-----------0-1-2-2-----------0-1-2-2-----------0-1-2-2

A|-4-3-3-2-0-2--------
E|-------------0-1-2-2

(Esta parte del solo es con pedal wha-wha)

B|-2-------2-------2-------
G|---2-4-2---2-4-2---2-4-2-

D|---------------------4-6~7
A|-0-------------4-5-7------
E|---0-0-1-2-4-5------------

e|-4
B|-5
G|-6
D|-7

A+:   577655

            
            
Suggest correction
Creating personal tab
Creating personal tab
You can edit any tab online and save it as your Personal.

You can edit, replace or remove any tab part or add personal notes – all changes will be seen only by you.

Personal tabs can be accessed anytime from any device, even offline.
Learn more »
Give kudos to tab author, rate the tab!
1 2 3 4 5
comments
print report bad tab
guest
Wanna post a correction for this tab? Suggest correction