Oops, an error
Loading. Please wait.

Si No Confías En Mí chords

53 views 1 this week
no commentswrite comment
1 2 3 4 5
3 more votes to show rating
add to favorites
×
Save as Personal and add changes to this tab that will be seen only by you. Learn more ›
×
You can save this tab as Personal to edit and correct it or add notes. All changes will be seen only by you. Learn more »
launch autoscroll
font size
0
reset
transpose
0
reset
display chords
guitar tuner
edit
Autoscroll
slow
fast
+/-
esc
set tempo
stop
Strumming
There is no strumming pattern for this song yet. and get +5 IQ
INTRO A

---------------------------------------
--6-6-6-6--5-5-5--10-10-10-10-10--3-3~-
--7-7-7-7--5-5-5--10-10-10-10-10--3-3~-
---------------------------------------
---------------------------------------
---------------------------------------

INTRO B (dejar las notas sonar)

---------------------------------------------------
---------------------------------------------------
-----2---2------2---2------2---2-------------------
---3---3---3--2---2---2--3---3---3-3-----0---------
-------------------------------------1-1---1-------
---------------------------------------------------

VERSO Igual que la INTRO B

Si no confías en mí, no habrá
ninguna esperanza para la humanidad.
Dame el derecho a vivir sin estar
bajo vigilancia toda la eternidad...

ESTRIBILLO
   Dm                   C             F   Bb
Y no habrá ocasión en que pueda mentirte, (Auuuuuuh)
   Dm                   C            F    Bb
ni una ocasión en que pueda engañarte,    [Auuuuuuh]
   Dm                   C          F      Bb
ni una ocasión en que pueda mentirte...   [Auuuuuuh]
Dm        C
Na nana nana...

VERSO Igual que la INTRO B

Si no confías en mí, tu sabrás
si no pierdes el tiempo porque te pasarás
noches en blanco sin fin y oirás
los ruidos de la casa pero no encontrarás...

ESTRIBILLO x2 Igual que el anterior

Ni una ocasión en que pueda mentirte,
ni una ocasión en que pueda engañarte,
ni una ocasión en que pueda mentirte...


Tab realizada por:

@HenaresIdioteqe (Twitter)
@MiguelASanchezH (Twitter)

Espero que os sirva!

            
            
Suggest correction
Creating personal tab
Creating personal tab
You can edit any tab online and save it as your Personal.

You can edit, replace or remove any tab part or add personal notes – all changes will be seen only by you.

Personal tabs can be accessed anytime from any device, even offline.
Learn more »
Give kudos to tab author, rate the tab!
1 2 3 4 5
comments
print report bad tab
guest
Wanna post a correction for this tab? Suggest correction