Oops, an error
Loading. Please wait.

Quédate Con Mi Voz tab

11 views 1 this week
no commentswrite comment
1 2 3 4 5
3 more votes to show rating
add to favorites
×
Save as Personal and add changes to this tab that will be seen only by you. Learn more ›
×
You can save this tab as Personal to edit and correct it or add notes. All changes will be seen only by you. Learn more »
launch autoscroll
font size
0
reset
how to read this tab
guitar tuner
edit
Autoscroll
slow
fast
+/-
esc
set tempo
stop
Esta es una versión en vivo que viene en el disco
de Edgar Oceransky "En vivo breve espacio"
donde colabora Niurka Curbelo.


Glosario

       EADGBe
/D#    xx1000
/D     xx0000
/B     x20010
Am7/G  302010
D/F#   2x0232
G6     320000
G/F#   200003
Em7*   x20030
Gadd11 32001x


INTRO

G

G
mi enfermedad eres tu
G
Y no la puedo ocultar
Em  /D#                  /D
     tu mundo es mi prisión
C       /B      Am
y en el mi corazón
Am7/G             D/F#
      agonizando está

        e|-------------3---|
        B|-----------------|
        G|-----------0-----|
        D|-----0-----------|
        A|--0h2-2---2------|
        E|--------3--------|


G6
mi enfermedad eres tu
G
Y no la puedo ocultar
Em  /D#              /D
      quisiera respirar
C       /B        Am
  y ser tu libertad
Am7/G          D/F#
pero no puedo mas
D
noo


G   G/F#                 Em  /D
       si muero antes de ti
              C     Em7*
permíteme mi amor
               Am       D
besarte las pupilas darte mi bendición
Em  /D#              /D   C            /B    Am
      quédate con mi voz,    los disco de Bosé
Am7/G                  D/F#
      mis cartas mi desvelos
    D               G    G/F#
y hasta los sueños que
           Em   /D
tejía para ti
           C      Em7*
con toda devoción
/A       Cm    Dsus4 D
  pero ayúdame
           G
a olvidarte

 e|---------3-5---5------------7------------0-2-3-5-|
 B|-------------------------7h8-8--10---------------|
 G|-------0-----0---0------7---------9--------------|
 D|-----------------------9-----------11--------2---|
 A|------2---------------7----------------3---------|
 E|-----3-----2--------------------9----------------|
        G    D/F#      Em7

 e|-6-5-5 3h5p3-3------------|
 B|-4-------------4-4-3h4p3--|
 G|-3------------------------|
 D|-5------------------------|
 A|-3------------------------|
 E|--------------------------|
   Cm7


Gadd11
mi enfermedad eres tu
G            Gadd11
    Y no la   quiero ocultar
Em  /D#             /D
     quisiera respirar
C     /B       Am
y ser tu libertad
Am7/G           D/F#
pero no puedo mas
D
noo


G   G/F#                 Em  /D
       si muero antes de ti
              C     Em7
permiteme mi amor
               Am       D
besarte las pupilas darte mi vendicion
Em  Em/D#           Em/D  C /B             Am
      quedate con mi voz,   los disco de boce
Am7/G                  D/F#
      mis cartas mi desvelos
    D               G    G/F#
y hasta los sueños que
           Em   Em/D
tejia para ti
           C      Em7*
con toda devocion
/A        Cm    D
  pero ayudame
           G
a olvidarte


 e|---------3-5---5------------7---------|
 B|-------------------------7h8-8--10----|
 G|-------0-----0---0------7---------9---|
 D|-----------------------9-----------11-|
 A|------2---------------7---------------|
 E|-----3-----2--------------------9-----|
        G    D/F#      Em7


 e|---0-2-3-5--6-5-5 3h5p3-3-------------3---|
 B|------------4-------------4-4-3h4p3---0---|
 G|------------3-------------------------0---|
 D|-------2----5-------------------------0---|
 A|-3----------3-------------------------2---|
 E|--------------------------------------3---|
              Cm7                        G

            
            
Suggest correction
Creating personal tab
Creating personal tab
You can edit any tab online and save it as your Personal.

You can edit, replace or remove any tab part or add personal notes – all changes will be seen only by you.

Personal tabs can be accessed anytime from any device, even offline.
Learn more »
Give kudos to tab author, rate the tab!
1 2 3 4 5
comments
print report bad tab
guest
Wanna post a correction for this tab? Suggest correction