Oops, an error
Loading. Please wait.

Lágrimas Quemadas tab

44 views 1 this week
no commentswrite comment
1 2 3 4 5
3 more votes to show rating
add to favorites
×
Save as Personal and add changes to this tab that will be seen only by you. Learn more ›
×
You can save this tab as Personal to edit and correct it or add notes. All changes will be seen only by you. Learn more »
launch autoscroll
font size
0
reset
how to read this tab
guitar tuner
edit
Autoscroll
slow
fast
+/-
esc
set tempo
stop
Intro:

E|----------------------------------------------
B|----------------------------------------------
G|---------------9--11-9------------------------
D|-9-11-12-11-12---------12-11-12-(9)-12/11-11--
A|----------------------------------------------

E|-----------------------------------------------|
B|-----------------------------------------------|
G|---------------9--11-9--------------12/11-11-9-|
D|-9-11-12-11-12---------12-11-12-(9)------------|
A|-----------------------------------------------|

(1)
B5          G5            E5   F#5
Nada en mis manos todo es nada ooh...
   B5            G5
El viento me impide seguir
      G5               F#5
Como sueño una premonición.

B5           G5
Vi lo que jugué,
     E5            F#5
Derroche todo lo ganado.
B5            G5
Sé que alguna vez
     G5              F#5
Debería haberte escuchado.

Break:

(Palm mute):
E|--------------------------------------------------
A|--------------------------------------------------
G|--------------------------------------------------
D|----------22------------------------22------------
A|-22-44-55------------------22-44-55---------------
E|-------------333-0-22-33--------------333-0-22-33-

E|--------------------------------------------------|
A|--------------------------------------------------|
G|--------------------------------------------------|
D|----------22------------------------22---4444444--|
A|-22-44-55------------------22-44-55------4444444--|
E|-------------333-0-22-33-----------------2222222--|

(2)
G#5                      F#5
Ya le he dicho al diablo de esperar
     B5                 C#5
Si quiere tener mi alma de apostar,
   G#5         F#5         B5      D#5
Será una ejecución en primavera...
G#5                F#5
Una soga al cuello por tensar
B5                   C#5
Arrastrado contra mi voluntad,
    G#5         F#5          E5     G5
Con lágrimas quemadas en la acera.

Intro

Igual que (1):
Vuela como llega vuela ooh..
Y hoy voy a dejarlo aquí, pues la suerte y el tiempo viajó.
No veo el final
Amanece y maldigo los cuatro vientos.
Llevo un talismán y el azar es mi único amor.

Break

Igual que (2)

SOLO:

E|-------------------------------------------------
B|-------------------------------------------------
G|---11-11-9-7-6-7-9----9-9-7-7-------11-11-9-9----
D|-9------------------9---------9--11-----------12-    (x2)
A|-------------------------------------------------
E|-------------------------------------------------

E|---------------------------------------------------
B|-------------10-7----------------------------------
G|---11-11-9-7------9---9b-7-9b---7-9-9b-7-9b-7-9b-7-
D|-9----------------------------9--------------------
A|---------------------------------------------------
E|---------------------------------------------------

E|------------------------------------------------|
B|------------------------------------------------|
G|---11-11-9-7-6-7-9---44444-7--99999-11----------|
D|-9-------------------44444-7--99999-11--(7)-(4)-|
A|---------------------22222-5--77777-9---(7)-(4)-|
E|----------------------------------------(5)-(2)-|

En los 9b suena mejor si se toca con harmónico artificial.

Igual que (2)
Ya le he dicho al diablo de esperar
Si quiere tener mi alma de apostar,
Será una ejecución en primavera..
Una soga al cuello por tensar
Arrastrado contra mi voluntad,
    G#5         F#5          E5     G5     E5    G5
Con lágrimas quemadas en la acera.

Intro (termina en B5).

No creo que esté 100% bien pero es tocable.

            
            
Suggest correction
Creating personal tab
Creating personal tab
You can edit any tab online and save it as your Personal.

You can edit, replace or remove any tab part or add personal notes – all changes will be seen only by you.

Personal tabs can be accessed anytime from any device, even offline.
Learn more »
Give kudos to tab author, rate the tab!
1 2 3 4 5
comments
print report bad tab
guest
Wanna post a correction for this tab? Suggest correction