Oops, an error
Loading. Please wait.

Prisión Mental chords

32 views 1 this week
no commentswrite comment
1 2 3 4 5
3 more votes to show rating
add to favorites
×
Save as Personal and add changes to this tab that will be seen only by you. Learn more ›
×
You can save this tab as Personal to edit and correct it or add notes. All changes will be seen only by you. Learn more »
launch autoscroll
font size
0
reset
transpose
0
reset
simplify chords
display chords
guitar tuner
edit
Autoscroll
slow
fast
+/-
esc
set tempo
stop
Strumming
There is no strumming pattern for this song yet. and get +5 IQ

E|-----------------------------------------------------|
B|-----------------------------------------------------|
G|-2-2-2-2-2-2-2-2-2-2-2-2-2-2-------------------------|
D|-0-0-0-0-0-0-0-2-2-2-2-3-2-0-3-3-3-3-3-3-3-3-3-3-3-3-|
A|-----------------------------1-1-1-1-1-1-1-3-3-3-5-3-|
E|-----------------------------------------------------|

E|-------------------------|
B|-------------------------|
G|-------------------------|
D|-7--7-9-10-12------10----|
A|-5--5-7-8--10-10-8-8--10-|
E|--------------8--6----8--|


D5                A#5
 Sobreviviendo en este telefilm
         C5                          F5   A5
viendo pasar la misma escena una vez mas
             D5                 A#5
prisionero y mas con la posibilidad
                         C5
de quebrar la pena y escapar
                      F5           A5
coger las riendas recobrar la libertad.
D5             A#5
me quiero fugar,no puedo escapar,
A5                              G5
un lazo en mi mente me impide volar.
F5         A5                D5
quiero aferrarme a el clavo que
    C5             F5
abrasando me aliviara
         A5          D5
reprenderme la dignidad.

C#5                F5
SOLO PALABRAS NADA MAS,
       D#5
QUE SE LLEVA EL VIENTO
C#5                 F5
EN ESTA JAULA DEMENCIAL,
       D#5
ME VOY CONSUMIENDO
C#5               F5
A VECES SOLO TE SEPARA
   D#5             C#5                   C5
UN PASO A LA LIBERTAD NO DEBES DEJARLO PASAR.


INTRO

            D5
ya me he cansao de malgastar mi vida
A#5
de no ver la salida,
C5                            F5  A5
tengo que aprender a amarme a mi
          D5
voy a escapar de este desierto extraño,
A#5                  C5
de esta rutina sin final
                         F5       A5
de esta desidia que me autodestruira.

D5             A#5
Puedo respirar, vuelvo a caminar
A5                            G5
Aflojando el lastre con seguridad...

Estribillo.

Solo: se toca sobre D5, A#5, C5, D5.

E|--------------------------------------
B|--------------------------------------
G|-----------------10-10-10-7-7-7-9-9-9-
D|---------10-8-7-----------------------
A|-3^-0-5-------------------------------
E|--------------------------------------

E|-----------------------------------
B|-----------------------------------
G|----------7-7-----10-10-10-7-7-7-9-
D|-10-10-10-----8-8------------------
A|-----------------------------------
E|-----------------------------------

E|-----------------------------------------------------------
B|-/10-10-10-10-10-8----------------------------8-8-8--------
G|-------------------10-10--10-10-9-7-7--7-9-10-------10-9-7-
D|-----------------------------------------------------------
A|-----------------------------------------------------------
E|-----------------------------------------------------------

E|13-10----10--------------------------------------------------
B|-------13-----13-10-13-10----10--------------------------------
G|------------------------12-----12-10----10-------------------
D|-------------------------------------12----12-10-12-10----10-
A|-------------------------------------------------------12----
E|-------------------------------------------------------------

E|13-10----10------------------------|
B|------13----13-10-13-10----10------|
G|------------------------12---------|
D|-----------------------------------|
A|-------------------------------b11-|
E|-------------------------------b9--|

Estribillo.

E|------------------------------------
B|------------------------------------
G|------------------------10-9-7----7-
D|-7-7-7-10----------------------10---
A|-5-5-5-8---8-8-8-10--10-------------
E|-----------6-6-6-8---8--------------

E|--------------------------------------------|
B|--------------------------------------------|
G|--------------------------------------------|
D|-7-7-7-10-----------------------------------|
A|-5-5-5-8---8-8-8-10--10-10-10-10-10-10-10-7-|
E|-----------6-6-6-8---8--8--8--8--8--8--8--5-|
Suggest correction
Creating personal tab
Creating personal tab
You can edit any tab online and save it as your Personal.

You can edit, replace or remove any tab part or add personal notes – all changes will be seen only by you.

Personal tabs can be accessed anytime from any device, even offline.
Learn more »
Give kudos to tab author, rate the tab!
1 2 3 4 5
comments
print report bad tab
guest
Wanna post a correction for this tab? Suggest correction