Oops, an error
Loading. Please wait.

La Puerta Del Amor tab

38 views 1 this week
no commentswrite comment
1 2 3 4 5
3 more votes to show rating
add to favorites
×
Save as Personal and add changes to this tab that will be seen only by you. Learn more ›
×
You can save this tab as Personal to edit and correct it or add notes. All changes will be seen only by you. Learn more »
launch autoscroll
font size
0
reset
how to read this tab
guitar tuner
edit
Autoscroll
slow
fast
+/-
esc
set tempo
stop
Intro:
   F5  Eb5
e-----------------------------------------
b-----------------------------------------
g--10---8-----10h8-10h8-------------------
D-----------------------10h8-8-6----------
A--------------------------------6-8~-----
E-----------------------------------------


Em      G    Bm       D
Hay una casa sola sin luz,
 C          D           Em
donde yo llegué a ocultarme
Em      G    Bm       D
Y así poder mi tristeza llorar
C          D        Em
de un ayer cruel infame
   G     D     Em      C     Em
ALgunas horas allí pensando pero nada consegui...


e-----------------------------------------
b----------9-11~9-------------------------
g--8h10-10--------10-8-10-8-8~------------
D-----------------------------------------
A-----------------------------------------
E-----------------------------------------

    G             D    Em   C
De pronto en la cama estaba yo
Em                      B7
y llorando al fin me dormí

e-------12----12----12----12--------------
b-10/12----12----12----12----12~~---------
g-----------------------------------------
D-----------------------------------------
A-----------------------------------------
E-----------------------------------------

CORO
                         Em
Y entre mis sueños yo me vi
               Am    Em
de pie en la nueva calle
    C         D        G      B7
Buscando la puerta del amor y yo
         Em
ya no sufrí
                  Am      Em
al ver que esa puerta se abre
C                    B7        Em
Hoy siento dentro de mí... el amor

(arpegiando con distorision)
Em      G    Bm       D
Contento y sin dudas desperté,
C          D           Em
recordando aquella calle
Em      G    Bm       D
de un pueblo llamado Libertad
C          D        Em
dónde yo llegué a encontrarme

    G       D     Em      C
Salté de la cama, bajé al bar,
Em
tú te hallabas junto a mí


e---17-------------------------
b-------17-15-17~~--------------
g------------------------------
D------------------------------
A------------------------------
E------------------------------
E------------------------------

    G         D    Em   C
'Perdona' te dije, sonreí,
Em                  B7
me miraste, fui feliz...
e-----------------------------------------
b--9h11--9--------9-11-11~----------------
g-----------11-11-------------------------
D-----------------------------------------
A-----------------------------------------
E-----------------------------------------

CORO
                         Em
Y entre mis sueños yo me vi
               Am    Em
de pie en la nueva calle
    C         D        G      B7
Buscando la puerta del amor y yo
         Em
ya no sufrí
                  Am      Em
al ver que esa puerta se abre
C                    B7        Em
Hoy siento dentro de mí... el amor


                       Em        Am     Em     Am
Junto a la puerta del amor te hallé y logré besarte
C           D          G    B7
mis sueños son ya realidad, amor
                       Em        Am    Em      Am
Junto a la puerta del amor te hallé y logré besarte
C                   B7
Te siento dentro de mí...

Solo:

e--12~--12~--12-12~--12---10-----------------------
b----------------------------13-12-12-13-12-10-12~-
g--------------------------------------------------
D--------------------------------------------------
A--------------------------------------------------
E--------------------------------------------------


e-12--12--12--10--------------15--17--17--17s19~
b-----------------13--10--12--------------------
g-----------------------------------------------
D-----------------------------------------------
A-----------------------------------------------
E-----------------------------------------------

e--12~~----12-12~--12~~---10-----------------------
b----------------------------13-12-12-13-12-10-12~-
g--------------------------------------------------
D--------------------------------------------------
Intro:
   F5  Eb5
e-----------------------------------------
b-----------------------------------------
g--10---8-----10h8-10h8-------------------
D-----------------------10h8-8-6----------
A--------------------------------6-8~-----
E-----------------------------------------


Em      G    Bm       D
Hay una casa sola sin luz,
 C          D           Em
donde yo llegué a ocultarme
Em      G    Bm       D
Y así poder mi tristeza llorar
C          D        Em
de un ayer cruel infame
   G     D     Em      C     Em
ALgunas horas allí pensando pero nada consegui...


e-----------------------------------------
b----------9-11~9-------------------------
g--8h10-10--------10-8-10-8-8~------------
D-----------------------------------------
A-----------------------------------------
E-----------------------------------------

    G             D    Em   C
De pronto en la cama estaba yo
Em                      B7
y llorando al fin me dormí

e-------12----12----12----12--------------
b-10/12----12----12----12----12~~---------
g-----------------------------------------
D-----------------------------------------
A-----------------------------------------
E-----------------------------------------

CORO
                         Em
Y entre mis sueños yo me vi
               Am    Em
de pie en la nueva calle
    C         D        G      B7
Buscando la puerta del amor y yo
         Em
ya no sufrí
                  Am      Em
al ver que esa puerta se abre
C                    B7        Em
Hoy siento dentro de mí... el amor

(arpegiando con distorision)
Em      G    Bm       D
Contento y sin dudas desperté,
C          D           Em
recordando aquella calle
Em      G    Bm       D
de un pueblo llamado Libertad
C          D        Em
dónde yo llegué a encontrarme

    G       D     Em      C
Salté de la cama, bajé al bar,
Em
tú te hallabas junto a mí


e---17-------------------------
b-------17-15-17~~--------------
g------------------------------
D------------------------------
A------------------------------
E------------------------------
E------------------------------

    G         D    Em   C
'Perdona' te dije, sonreí,
Em                  B7
me miraste, fui feliz...
e-----------------------------------------
b--9h11--9--------9-11-11~----------------
g-----------11-11-------------------------
D-----------------------------------------
A-----------------------------------------
E-----------------------------------------

CORO
                         Em
Y entre mis sueños yo me vi
               Am    Em
de pie en la nueva calle
    C         D        G      B7
Buscando la puerta del amor y yo
         Em
ya no sufrí
                  Am      Em
al ver que esa puerta se abre
C                    B7        Em
Hoy siento dentro de mí... el amor


                       Em        Am     Em     Am
Junto a la puerta del amor te hallé y logré besarte
C           D          G    B7
mis sueños son ya realidad, amor
                       Em        Am    Em      Am
Junto a la puerta del amor te hallé y logré besarte
C                   B7
Te siento dentro de mí...

Solo:

e--12~--12~--12-12~--12---10-----------------------
b----------------------------13-12-12-13-12-10-12~-
g--------------------------------------------------
D--------------------------------------------------
A--------------------------------------------------
E--------------------------------------------------


e-12--12--12--10--------------15--17--17--17s19~
b-----------------13--10--12--------------------
g-----------------------------------------------
D-----------------------------------------------
A-----------------------------------------------
E-----------------------------------------------

e--12~~----12-12~--12~~---10-----------------------
b----------------------------13-12-12-13-12-10-12~-
g--------------------------------------------------
D--------------------------------------------------
A--------------------------------------------------
E--------------------------------------------------

e-------12-----12-----12-----12-----
b--12~----12~~---12~~---12~~---12~~-
g-----------------------------------
D-----------------------------------
A-----------------------------------
E-----------------------------------

                       Em        Am     Em     Am
Junto a la puerta del amor te hallé y logré besarte
  C           D          G    B7
  mis sueños son ya realidad, amor
e--12~-12~-12~-10-------------------------12~~--
b-----------------13-12-10-12h13h12h10h12-------
g-----------------------------------------------
D-----------------------------------------------
A-----------------------------------------------
                       Em        Am    Em      Am
Junto a la puerta del amor te hallé y logré besarte
C                   B7
Te siento dentro de mí...


                       Em        Am     Em     Am
Junto a la puerta del amor te hallé y logré besarte
e----------------------------------------------------------------------
b----------------------10s12-10h12-10h12-10h12-10h12-10h12-10h12-10h12-
g----------------------------------------------------------------------
D----------------------------------------------------------------------
A----------------------------------------------------------------------
E----------------------------------------------------------------------
E----------------------------------------------------------------------

C           D          G    B7
mis sueños son ya realidad, amor
e----12--12-12-10--------------------------------------
b------------------13-12-10-12h13h12h10h12-12-10-------
g------------------------------------------------12----
D------------------------------------------------------
A------------------------------------------------------
E------------------------------------------------------
E------------------------------------------------------

                       Em        Am     Em     Am
Junto a la puerta del amor te hallé y logré besarte
(este riff comienza al terminar la palabra amor)
e------------------------------------------------------------
b---12h13h12h10h12-12h13h12h10h12-12h13h12h10h12-10----12-10-
g---------------------------------------------------12------12
D------------------------------------------------------------
A------------------------------------------------------------
E------------------------------------------------------------
E------------------------------------------------------------

    C                   B7
    Te siento dentro de mí...
e---12-------12~~--------------
b-------12-10--------10-12~~---
g------------------------------
D------------------------------
A------------------------------
E------------------------------
E------------------------------

            
            
Suggest correction
Creating personal tab
Creating personal tab
You can edit any tab online and save it as your Personal.

You can edit, replace or remove any tab part or add personal notes – all changes will be seen only by you.

Personal tabs can be accessed anytime from any device, even offline.
Learn more »
Give kudos to tab author, rate the tab!
1 2 3 4 5
comments
print report bad tab
guest
Wanna post a correction for this tab? Suggest correction