Oops, an error
Loading. Please wait.

Al Vacío tab

version 3
version 3

Whole song

196 views 6 this week
no commentswrite comment
1 2 3 4 5
3 more votes to show rating
add to favorites
×
Save as Personal and add changes to this tab that will be seen only by you. Learn more ›
×
You can save this tab as Personal to edit and correct it or add notes. All changes will be seen only by you. Learn more »
launch autoscroll
font size
0
reset
how to read this tab
guitar tuner
edit
Autoscroll
slow
fast
+/-
esc
set tempo
stop
INTRO

/------------------------------------------------
/------------------------------------------------
/--7/8-----6*/7/6------11--11--------11--11------
/------9-7----------9---9---------9---9----------
/------------------------------------------------
/------------------------------------------------

--------------------------------------------------------------
--------------------------------------------------------------
-----------12-11-----7/8-----------6*/7/6----11--11-----11--11
---11-9---------------------9--7----------9---9-----9----9----
--------------------------------------------------------------
--------------------------------------------------------------

/-------------------------------------------------//
/-------15---14--12--10/12------------------------//
/----11---11--------------------------------------//
/-------------------------------------------------//
/-------------------------------------------------//
/-------------------------------------------------//


SIm      F#m
  todo parece estar
Em            D          F#
  queriendo cerrar una herida
SIm         F#m
  lejos de abandonar
Em          D       F#
  cerca de una despedida

SIm          F#m
   no quiero más
SIm        F#m
   verte pasar

SIm        G                   F#
   solo me quiero sentar a esperar

SIm      F#m
lo fueron a matar

Em            D          F#
y lo dejaron con vida

SIm         F#m
sin sospechar

Em          D       F#
que todavía respira

SIm         F#m
no quiero más

SIm         F#m
verte pasar

SIm     G                   F#
solo me quiero sentar a esperar
ESTRIBILLO
                Em           A       D     G
que saltes al vacío y que no vuelvas nunca
              Em      G       F#                 Em       A         SIm
y que toda tu vida te mate la culpa de haberme robado una parte del alma
G                         F#
y es lo que a vos te hace falta
             SIm D A    SIm D A
alejarte de acá

/------------------------------------------------------
/------------------------------------------------------
/----------7-7---------9-7------7----------------7-7-6-
/-9---9-9-------7----------9-7-----9-7-9---9-9-9-------
/------------------------------------------------------
/------------------------------------------------------

----------------
----------------
----------------
-----7*--9------
--9-------------
----------------

/------------------------------------------------------
/------------------------------------------------------
/----------7-7---------9-7------7----------------7-7-6*
/-9---9-9-------7----------9-7-----9-7-9---9-9-9-------
/------------------------------------------------------
/------------------------------------------------------

SIm      F#m

vos querés enseñar

Em            D          F#
pero te faltan ideas

SIm      F#m
vos sabés señalar

Em            D          F#
pero esperá que te vean

Riff1      Riff1
  SIm      F#m
  no quiero más

Riff1      Riff1
  SIm      F#m
  verte pasar
Riff1   Riff2
SIm     G                   F#
solo me quiero sentar a esperar y rogar

ESTRIBILLO

                Em           A       D     G
que saltes al vacío y que no vuelvas nunca
              Em      G       F#                 Em       A         SIm
y que toda tu vida te mate la culpa de haberme robado una parte del alma
G                         F#
y es lo que a vos te hace falta
             SIm D A    SIm D A
alejarte de acá

que saltes al vacío y que no vuelvas nunca
y que toda tu vida te mate la culpa de haberme robado una parte del alma
y es lo que a vos te hace falta
alejarte de acá

/------------------------------------------------------
/------------------------------------------------------
/----------7-7---------9-7------7----------------7-7-6-
/-9---9-9-------7----------9-7-----9-7-9---9-9-9-------
/------------------------------------------------------
/------------------------------------------------------

----------------
----------------
----------------
-----7---9------
--9-------------
----------------

/------------------------------------------------------
/------------------------------------------------------
/----------7-7---------9-7------7----------------7-7-6*
/-9---9-9-------7----------9-7-----9-7-9---9-9-9-------
/------------------------------------------------------
/------------------------------------------------------

Riff 1
e/-------------
B/-------------
G/-----11---11-
D/---9----9----
A/-------------
E/-------------

Riff2
e/-----------------------------------
B/-----------------------------------
G/-----11-12--12/16-15--14-13-11-10-9
D/---9-------------------------------
A/-----------------------------------
E/-----------------------------------
(No es casi igual pero es bastante parecido)

RASGEO ESTRIBILLO:
[Ar=Arriba
 Ab=Abajo
 4d=Con los cuatro dedos (No pulgar)
 P=Pulgar]

                Em                 A                  D      G
que saltes al  vacío   y que  no   vuelvas           nunca
              Ab(4d)---Ab(4d)Ar(P) Ab(4d)---Ab(4d)Ar(P) Ab(4d)---Ab(4d)Ar(P)


* = Dejar sonar
/ =Slide

Creo que esta bastante bien cualquier duda o corrección avisen y lo corrigo
Suggest correction
Creating personal tab
Creating personal tab
You can edit any tab online and save it as your Personal.

You can edit, replace or remove any tab part or add personal notes – all changes will be seen only by you.

Personal tabs can be accessed anytime from any device, even offline.
Learn more »
Give kudos to tab author, rate the tab!
1 2 3 4 5
comments
print report bad tab
guest
Wanna post a correction for this tab? Suggest correction