Oops, an error
Loading. Please wait.

Difícil chords

83 views 3 this week
no commentswrite comment
1 2 3 4 5
3 more votes to show rating
add to favorites
×
Save as Personal and add changes to this tab that will be seen only by you. Learn more ›
×
You can save this tab as Personal to edit and correct it or add notes. All changes will be seen only by you. Learn more »
launch autoscroll
font size
0
reset
transpose
0
reset
display chords
guitar tuner
edit
Autoscroll
slow
fast
+/-
esc
set tempo
stop
Strumming
There is no strumming pattern for this song yet. and get +5 IQ
Colaboración de Sebastián Bargueño ?ELCARACO?
El tema se toca haciendo el siguiente punteo sobre los acordes
salvo el estribillo (siempre rasgueado)

Bueno, le agregué y le corregí un par de cosas que tenía mal...

INTRO:
        Am           G        Dm     Am
1---------0-----/---------/-------/----->
2----------1----/-----3---/--3-3--/--1-->
3------2----2---/------0--/--2-2--/--2-->
4----2--2----2--/---------/--0-0--/--2-->
5-0-------------/---2-----/-------/----->
6---------------/--3------/-------/----->
sigue acá>
     Am          G       Dm    Am
>------0-----/---------/------/----->
>--(1)--1----/-----3---/--3-3-/--1-->
>---(2)--2---/------0--/--2-2-/--2-->
>--------2--/---------/--0-0-/--2--->
>------------/--2-----/------/------>
>------------/--3------/------/----->
sigue acá>
1)>  Am         G       Dm    /  Am /(1a vez)  x2  /  E  /(2a vez)
  >1--0-----/---------/-------/-----/              /-----/
  >2---1----/-----3---/--3-3--/--1--/              /--0--/
  >3----2---/------0--/--2-2--/--2--/              /-----/
  >4-----2--/---------/--0-0--/--2--/              /-----/
  >5--------/---2-----/-------/-----/              /--2--/
  >6--------/--3------/-------/-----/              /-----/

NOTA: El tema se toca como la última parte del estribillo "1)"

1)
         Am         G       Dm-Am
Ya no se puede decir nada más
  Am        G      Dm-Am
es hora de despertar
          Am            G             Dm-Am
es muy profundo el sueño que lo atrapa
        Am            G         Dm-Am
es algo que a su voluntad escapa
Am          G   Dm-Am
no mira el cielo
Am          G          Dm-Am
todo lo dejó en la nada

1)
(Am   G    Dm-Am ) x2

1)
Fue complice  de sus miserias
que la echaron de su cama
y es tan difícil
que pase algo y llegar a mañana

1)
Am   G   Dm-Am   /  Am   G   Dmm E(rasgueado)

ESTRIBILLO:

2)
E           D     Am
como matar esa mirada
E               D      Am
como ocultar promesas vanas
E                   D      Am
con solo un par de cosas claras
E      D   F#  Bm
como soñó una vez
            D       F#  Bm
entregarle cuerpo y alma
             D      F#  Bm
ser el vuelo de sus alas
Bm            D-F#
  y es tan difícil
Bm            D - Am
  y es tan difícil

1)
(Am   G   Am ) x3,  Am  G  E

ESTRIBILLO:
2)
Como matar esa miada
como ocultar promesas vanas
con solo un par de cosas claras
como soñó una vez
entregarle cuerpo y alma
ser el vuelo de sus alas
  y es tan difícil
  y es tan difícil

1)
Fue complice de sus miserias
que la hecharon de su cama
y es tan difícil
         Am           G     Dm - - - - se toca así:
que pase algo y llegar a mañana       1|-----1--0--|
                                      2|----3------|
                                      3|---2-------|
                                      4|--0--------|

Escuchen bien la canción para saber exacto donde tocar los acordes

            
            
Suggest correction
Creating personal tab
Creating personal tab
You can edit any tab online and save it as your Personal.

You can edit, replace or remove any tab part or add personal notes – all changes will be seen only by you.

Personal tabs can be accessed anytime from any device, even offline.
Learn more »
Give kudos to tab author, rate the tab!
1 2 3 4 5
comments
print report bad tab
guest
Wanna post a correction for this tab? Suggest correction