Oops, an error
Loading. Please wait.

Llévame Contigo tab

38 views 1 this week
no commentswrite comment
1 2 3 4 5
3 more votes to show rating
add to favorites
×
Save as Personal and add changes to this tab that will be seen only by you. Learn more ›
×
You can save this tab as Personal to edit and correct it or add notes. All changes will be seen only by you. Learn more »
launch autoscroll
font size
0
reset
how to read this tab
guitar tuner
edit
Autoscroll
slow
fast
+/-
esc
set tempo
stop
Intro:

E|--------------------------------------------|
B|--------------------------------------------|
G|--9-9-12---------7---7---9-9-12---9----11~--| x2
D|---------9~--5h7---7------------9---12------|
A|--------------------------------------------|
E|--------------------------------------------|

E|--------------------------------------------|
B|--------------------------------------------|
G|--9-9-9--7-7-------7~--7-9~-----------------|
D|--9-9-9--7-7---9-9---9----------------------|
A|--7-7-7--5-5--------------------------------|
E|--------------------------------------------|

E       B        D      A      <-- Así toda canción
 Llévame a tus brazos mujer,
 por si acaso no te veo y te digo.
 Llévame a tus brazos mi amor,
 por si acaso no nos vemos te pido,
 búscame entre tus labios mujer
 y no me dejes esperando, no me dejes.
 Búscame entre tus labios mi amor y dame
 mas y dame un poco más.

 E      B        D      A
 Llévame            contigo,
E~               D
 sabes bien lo que necesito
 que por favor me des abrigo
 sabes bien que es lo que yo pido
 no es mucho que no puedas pagar
 alejándome del frio.
 Llévame contigo.

E|-----------------------------------------|
B|---------8-------------------13-12-------|
G|-9---------9~--12---9-8-11~-------12-11~-|
D|---7-8-9----------9----------------------|
A|-----------------------------------------|
E|-----------------------------------------|

E|--------------------------------|
B|-------------------13-12--------|
G|-9-9-12----9-8-11~-------12-11--| x3
D|--------12----------------------|
A|--------------------------------|
E|--------------------------------|

E|--------------------------------|
B|--------------------------------|
G|--9-9-9--7-7-------7~--7-9~-----|
D|--9-9-9--7-7---9-9---9----------|
A|--7-7-7--5-5--------------------|
E|--------------------------------|

Ahora son acordes de 5ta con distorsion:
E5       B5        D5      A5
 Llévame contigo, llévame
 Llévame contigo, llévame
 Llévame contigo, llévame
 Llévame contigo, llévame

E|----------------------------------------------------------|
B|-12-10-12-13-12-10---------12-10-12-13-12-10--------------|
G|-------------------12-11~--------------------12-11-12-11~-|
D|----------------------------------------------------------|
A|----------------------------------------------------------|
E|----------------------------------------------------------|

E|---------------------------------------------------------------|
B|-12-10-12-13-12-10---------12-10-12-13-12-10-------------------|
G|-------------------12-11~--------------------12-11-9-----------|
D|-----------------------------------------------------12-10-9~--|
A|---------------------------------------------------------------|
E|---------------------------------------------------------------|

E|-------------------------------------|
B|---------8---------8---------8~------|
G|-9---------9---------9--------(9~)---|
D|---7-8-9-----7-8-9-----7-8-9---------|
A|-------------------------------------|
E|-------------------------------------|

E5       B5        D5      A5
 Llévame contigo, llévame
 Ya sabes todo lo que quiero es que me vengas a buscar.

 Llévame contigo, llévame
 Saltando, caminando, corriendo llévame contigo.

 Llévame contigo, llévame
 No es mucho, no es nada que no puedas pagar.

 Llévame contigo, llévame
 Yo quería que me lleves contigo mi amor.

E|--------------------------------------------|
B|--------------------------------------------|
G|--9-9-12---------7---7---9-9-12---9----11~--| x2
D|---------9~--5h7---7------------9---12------|
A|--------------------------------------------|
E|--------------------------------------------|

E|----------------------------|
B|---------8------------------|
G|-9---------9~---------------|
D|---7-8-9---9~---------------|
A|-----------7~---------------|
E|----------------------------|

h = hammer on
p = pull off
~ = vibrato
 = slide hacia atrás (hacia el traste 0)
/ = slide hacia delante (hacia el traste 19,20,etc)
(-x-) = nota opcional
x = no se toca esa cuerda

Los siguientes acordes toquenlos así:
 B5   E5
|-x-|-x-|
|-x-|-x-|
|-x-|-9-|
|-9-|-9-|
|-9-|-7-|
|-7-|-x-|

Cualquier duda me mandan un mail: agustin_mrgo@

            
            
Suggest correction
Creating personal tab
Creating personal tab
You can edit any tab online and save it as your Personal.

You can edit, replace or remove any tab part or add personal notes – all changes will be seen only by you.

Personal tabs can be accessed anytime from any device, even offline.
Learn more »
Give kudos to tab author, rate the tab!
1 2 3 4 5
comments
print report bad tab
guest
Wanna post a correction for this tab? Suggest correction