Oops, an error
Loading. Please wait.

Reevolución bass

34 views 1 this week
no commentswrite comment
1 2 3 4 5
3 more votes to show rating
add to favorites
×
Save as Personal and add changes to this tab that will be seen only by you. Learn more ›
×
You can save this tab as Personal to edit and correct it or add notes. All changes will be seen only by you. Learn more »
launch autoscroll
font size
0
reset
guitar tuner
edit
Autoscroll
slow
fast
+/-
esc
set tempo
stop
G|----------------------------------------|
D|----------------------------------------|
A|-----5-3-5------5-3-5------555-------5--|
E|-3-3--------3-3-------6666-----6-5-5----|

G|------------------------------------------------|
D|------------------------------------------------|
A|-----5-3-5------5-3-5------555-------5----------|
E|-3-3--------3-3-------6666-----6-5-5------6-5-3-|

ya no le creemos...
G|--------------------------------|
D|----5555---5555-----------------|
A|--3------3--------1-------------|
E|--------------------3--1--3-----|

G|------------------------------------|
D|------------------------------------|
A|---------------5-3-5-----5-3-5------|
E|-11--22--33--3-------3-3------------|


por que estan a punto...
G|--------------------------------|
D|----5555---5555-----------------|
A|--3------3--------1-------------|
E|--------------------3--1--3-----|

G|-----------------------------|
D|-----------------------------|
A|-----------------------------|
E|-111--3-5-6-6666-5555-3------|


lo que sigue:
primera parte x4
estribillo (ya no le creemos)
primera  parte X4 (sube un tono en todo lo que queda del
tema: baja dos trastes)
estribillo
primera parte hasta el final x10

bueno... los tiempos no estan muy bien pero si lo escuchan se
van a dar cuenta... y puede diferir la altura de las notas,
si no estan convencidos busquen las mismas notas pero mas agudas chauuuus

julian_alvamdq@

            
            
Suggest correction
Creating personal tab
Creating personal tab
You can edit any tab online and save it as your Personal.

You can edit, replace or remove any tab part or add personal notes – all changes will be seen only by you.

Personal tabs can be accessed anytime from any device, even offline.
Learn more »
Give kudos to tab author, rate the tab!
1 2 3 4 5
comments
print report bad tab
guest
Wanna post a correction for this tab? Suggest correction