Oops, an error
Loading. Please wait.

Defiéndete tab

8 views 1 this week
no commentswrite comment
1 2 3 4 5
3 more votes to show rating
add to favorites
×
Save as Personal and add changes to this tab that will be seen only by you. Learn more ›
×
You can save this tab as Personal to edit and correct it or add notes. All changes will be seen only by you. Learn more »
launch autoscroll
font size
0
reset
how to read this tab
guitar tuner
edit
Autoscroll
slow
fast
+/-
esc
set tempo
stop
INTRO:

  A                   D
e|----5-7-7/9-5----|------|
b|--5------------5-|-5/7--|
g|------7-7/9-6----|------|
D|-----------------|------|
A|-----------------|------|
E|-----------------|------|

             A  E   E7
e|---------|------|-----12-|
b|-7--5--3-|-2--5-|-9------|
g|---------|------|--------|
D|-7--6--4-|-2--6-|-9------|
A|---------|------|--------|
E|---------|------|--------|


    A      D                     E7
Defiéndete  si lo que digo no te pega
D                     E7
 Yo soy el aire que levanta tu pollera
    D        E7
Si no es así   que pague con mi cuerpo esta mentira
   D                        E7
Mi piel la consonante de tu rima
    D                        F E7
Mis noches el color de tus oje ras


D       C#m        Bm
Defiéndete si este amor
      E7
No es todo lo que digo


   F#m
La cláusula final
   E7         D
Tu juez y tu ladrón
   Bm
El mapa del destino
         E7
Tus cien años de perdón


    A
Tu apuro por llegar
    F#m
Tu frase sin sentido
     D
Y la voz que te molesta
      E7
Repitiéndote al oído:
 A        E7
Cuanto te amo
  D           E E7 A
Amor, cuanto te a  mo.


Solo de guitarra 1:

             A  Bm                 F#m
e|------10-9-9-|---------------|---------|
b|-------------|--10-9-10--9-7-|-9-7-----|
g|-7/11--------|---------------|------9--|
D|-------------|---------------|---------|
A|-------------|---------------|---------|
E|-------------|---------------|---------|

                D        A               E7
e|------------7-9--9p7-|--------------------|
b|-----7-9-10----------|-10--10-10/12-10-10-|
g|-7-9-----------------|--------------------|
D|---------------------|--------------------|
A|---------------------|--------------------|
E|---------------------|--------------------|

                 A
e|-----------|------|
b|-12p10--9--|--10--|
g|-----------|------|
D|-----------|------|
A|-----------|------|
E|-----------|------|


  A       D                      E7
Defiéndete  si lo que digo no te pega
D                      E7
 Yo soy la cita a medianoche que te espera
   D        E7                     A
Si no es así  tendrías que negarlo una y mil veces
    D                        E7
Que soy el plato fuerte que apeteces
   D                      F  E7
Tu postre y ese vino que deseas


D       C#m         Bm
Defiéndete, si este amor
      E7
No es todo lo que digo


   F#m
Tu deber y obligación
    E7          D
Un tercio y tu total
   Bm
La marca de tu estilo
      E7
Y al anillo en tu anular

    A
Tu prenda por error
     F#m
La moneda en tu bolsillo
      D
Y la voz que te molesta
     E7
Repitiéndote al oído:
 A        E7
Cuanto te amo
  D          E  E7 A
Amor, cuanto te a  mo.

Solo de guitarra 2:

  A                E7              D
e|-----------7h9-|-7-------------|-------|
b|----7-9-10-----|---7h9-9-9-7-9-|-10--7-|
g|--9------------|---------------|-------|
D|---------------|---------------|-------|
A|---------------|---------------|-------|
E|---------------|---------------|-------|

   F       G
e|-8-------10--------|
b|---8-10-----10-12--|
g|-------------------|
D|-------------------|
A|-------------------|
E|-------------------|


 A        E7
Cuanto te amo
  D          E  E7 A
Amor, cuanto te a  mo.

            
            
Suggest correction
Creating personal tab
Creating personal tab
You can edit any tab online and save it as your Personal.

You can edit, replace or remove any tab part or add personal notes – all changes will be seen only by you.

Personal tabs can be accessed anytime from any device, even offline.
Learn more »
Give kudos to tab author, rate the tab!
1 2 3 4 5
comments
print report bad tab
guest
Wanna post a correction for this tab? Suggest correction