Oops, an error
Loading. Please wait.

Me Enamoré De Una Zamba chords

version 2
version 2

Whole song

19 views 1 this week
no commentswrite comment
1 2 3 4 5
3 more votes to show rating
add to favorites
×
Save as Personal and add changes to this tab that will be seen only by you. Learn more ›
×
You can save this tab as Personal to edit and correct it or add notes. All changes will be seen only by you. Learn more »
launch autoscroll
font size
0
reset
transpose
0
reset
simplify chords
display chords
guitar tuner
edit
Autoscroll
slow
fast
+/-
esc
set tempo
stop
Strumming
There is no strumming pattern for this song yet. and get +5 IQ
negrita esta cancion va dedicada para vos
espero que te guste Saluda atte EmAnUeL.

intro:
------------10-9-9--7-7-6-7-6-7-2-2/5--3-2-3-1ra
--7~8~7-6-7---------9-9-8-9-8-9-4-4/7--5-4-5-2da
---------------------------------------------3ra
---------------------------------------------4ta

--8/9-6-------------------------------1ra
---------7/8-7--7--5-5-3-2-3----------2da
--8/9-6--8/9-8--7--6-6-4-3-4--1-3-4---3ra
-----------------------------4--------4ta

------------------------3-2-1-2-----------------1ra
-2-3-2---3-5-6-7--2-2---5-3-2-3--3/5-4-5--3-2-3-2da
--------4-6-7--------------------4/6-5-6--4-3-4-3ra
--------------8-----2---------------------------4ta


--8-9-7------7------9---10----------1ra
----------7----7--7---7-------------2da
--8-9-7------7--7-------------------3ra
--------8---------------------------4ta

no esta perfecta pero suena bien


     Bm          A7  G       F#7
La noche iba juntando estrellas dormidas
                Em              Bm-B7                            
y vi pintar la aurora sus rojas mejillas
 Em            Bm 
lento caminar, eterno resplandor
 F#7                 Bm              
mostraba el sol su inmensidad
F#7      Bm A7 G      F#7   
miraba de reojo celosa la luna
Em      D     F#7     Bm                
sobre la cuna del algarrobal.


Morena y orgullosa de tantas miradas
llegaba presurosa vistiendo de gala
De misterio azul el rostro se cubrió
donosa comenzó a bailar
y aprovechó suspiros para echar en vuelo
blanco pañuelo aromado de azahar.

Estribillo:

Bb7 A7                D   
Detrás de ti va mi nostalgia
  C°      B7          Em
Y agito en vano mi esperanza
  Em                Bm                               
Déjame encender el fuego en tu candor
 F#7                    Bm
Y en ese sueño verte arder
F#7  Bm       A7   G       F#7             
Así podré saber que destino me lleva
Em    D        F#7       Bm                      
En tu pollera enredarme de amor.


Deje que mis deseos cobraran altura
Y en gotas de rocío bañe tu figura
Para ahogar la sed bebí de la ilusión
De ser el dueño de tu amor
Soñé que en tu cintura dejaba en mis manos
Todo el verano de mi corazón.

Yo quise detenerte paloma en  mi nido
Y en un gentil arresto roce tu vestido,
Pero tu ansiedad buscando el arrebol
Dejo su luz de eternidad,
Se fue tras de tu huella mi voz al nombrarte
Para entregarte


C° 2
    4
    2
    4
    3
    2

cualquier duda mandenme un mail a dransx@

            
            
Suggest correction
Creating personal tab
Creating personal tab
You can edit any tab online and save it as your Personal.

You can edit, replace or remove any tab part or add personal notes – all changes will be seen only by you.

Personal tabs can be accessed anytime from any device, even offline.
Learn more »
Give kudos to tab author, rate the tab!
1 2 3 4 5
comments
print report bad tab
guest
Wanna post a correction for this tab? Suggest correction