Oops, an error
Loading. Please wait.

Tómame tab

version 1
version 1

Whole song

19 views 1 this week
no commentswrite comment
1 2 3 4 5
3 more votes to show rating
add to favorites
×
Save as Personal and add changes to this tab that will be seen only by you. Learn more ›
×
You can save this tab as Personal to edit and correct it or add notes. All changes will be seen only by you. Learn more »
launch autoscroll
font size
0
reset
how to read this tab
guitar tuner
edit
Autoscroll
slow
fast
+/-
esc
set tempo
stop
==============================
Transcrpcion de Rodrigo Mamaní
roanma88@
==============================


e|-|------------0-0-0-0-----0----3--0--2--3--0--3--0--3-------------------------
b|-|---0--1--3-----------3-------------------------------3----3--0--------------
g|-|----------------------------------------------------------------2--0-0-0--2-
D|-|----------------------------------------------------------------------------
A|-|----------------------------------------------------------------------------
E|-|----------------------------------------------------------------------------

e|-|----0---3--0------------2--------------------------------0---3--0-----------
b|-|-0------------3-3--0-0-------------3--0---------------0------------3-3--0-0-
g|-|---------------------------0-------------2--0-0-0--2------------------------
D|-|------------------------------2---------------------------------------------
A|-|----------------------------------------------------------------------------
E|-|----------------------------------------------------------------------------

e|-|-2----------
b|-|------------
g|-|----0-------
D|-|-------2----
A|-|------------
E|-|------------


E7                  C
Ay Vida mia que voy hacer

        D7          G
me desespera tu timidez

                       C 
me sobra fuego para querer 

      B7               Em
y tu pareces no comprender


        D7    G
Es el amor el tren de la vida 

D7                G
que pasa solo una vez

D7          G
si una duda tienes negrita

B7               Em
quedaras en el anden.


Em                       Dm
Si con palabras no puedo yo

          D7              G
decir que siente mi corazón

                          C
toca mi cuerpo deja el candor

          B7              Em
abraza el fuego de mi pasión


E7               C
Y si te animas a esperarme

         D7              G
como una hoguera toda mi piel

G                   C    | 
hoy es el día, mañana es tarde|
                        |>bis 
       B7              Em     | 
quiero entregarte todo mi ser.|


Es el amor el tren de la vida...

Como la intro

Por que semilla tuve que ser 
despues un arbol y florecer
maduro fruto soy al caer 
si te decides ven tomamé

Es el amor el tren de la vida...

Si no soy agua que has de beber
agua que debes deja correr
si no abandonas tu timidez 
como un arroyo me alejaré

Y si te animas a esperarme.. x2

Final como intro.


============================
Alguna duda mandenme un mail
============================

            
            
Suggest correction
Creating personal tab
Creating personal tab
You can edit any tab online and save it as your Personal.

You can edit, replace or remove any tab part or add personal notes – all changes will be seen only by you.

Personal tabs can be accessed anytime from any device, even offline.
Learn more »
Give kudos to tab author, rate the tab!
1 2 3 4 5
comments
print report bad tab
guest
Wanna post a correction for this tab? Suggest correction