Oops, an error
Loading. Please wait.

Tómame tab

version 2
version 2

Whole song

7 views 1 this week
no commentswrite comment
1 2 3 4 5
3 more votes to show rating
add to favorites
×
Save as Personal and add changes to this tab that will be seen only by you. Learn more ›
×
You can save this tab as Personal to edit and correct it or add notes. All changes will be seen only by you. Learn more »
launch autoscroll
font size
0
reset
how to read this tab
guitar tuner
edit
Autoscroll
slow
fast
+/-
esc
set tempo
stop
hola!!!! como estan??? soy facundo aguilera, de salta argentina.
Aqui les dejo la intro de esta muy buena canción. Espero les guste
y cualquier sugerencia no duden en escribirme... saludos a todos


e-3-3-2---2-3---3---3-5-3------3-3-2---2-3---3---3-----
B-------5-----5---5------------------5-----5---5---3---
G------------------------------------------------------
D------------------------------------------------------
A------------------------------------------------------
E------------------------------------------------------


e-----------------0-----3------------------------------
B-3-----------------------5-3--------------------------
G---4-2-------2-4-------------4-2-4-2------------------
D-------5-5-5-------------------------5-2--------------
A------------------------------------------------------
E------------------------------------------------------

DEBEN HACER TODO ESTO DOS VECES...Y LUEGO COMIENZAN A CANTAR
QUE LA DISFRUTEN
CHAU CHAU


SALUDOS A LOS PUCHE Y A MI AMORCITO QUE LA AMO CON TODO MI CORAZON

ANABELLA TE AMO!!!

            
            
Suggest correction
Creating personal tab
Creating personal tab
You can edit any tab online and save it as your Personal.

You can edit, replace or remove any tab part or add personal notes – all changes will be seen only by you.

Personal tabs can be accessed anytime from any device, even offline.
Learn more »
Give kudos to tab author, rate the tab!
1 2 3 4 5
comments
print report bad tab
guest
Wanna post a correction for this tab? Suggest correction