Oops, an error
Loading. Please wait.

Vuela Una Lágrima tab

64 views 1 this week
no commentswrite comment
1 2 3 4 5
3 more votes to show rating
add to favorites
×
Save as Personal and add changes to this tab that will be seen only by you. Learn more ›
×
You can save this tab as Personal to edit and correct it or add notes. All changes will be seen only by you. Learn more »
launch autoscroll
font size
0
reset
how to read this tab
guitar tuner
edit
Autoscroll
slow
fast
+/-
esc
set tempo
stop
INTRO:


   FA#m
e|-------2-------2-------2-------2-|
b|-----2-------2-------2-------2---|
g|---2-------2-------2-------2-----|
D|---------4---------------4-------|
A|---------------------------------|
E|-2---------------2---------------|X2


estrofas:

   FA#m
e|-------2-------2-------2-------2-|
b|-----2-------2-------2-------2---|
g|---2-------2-------2-------2-----|
D|---------2---------------2-------|
A|---------------------------------|
E|-2---------------2---------------|

    RE
e|-------2-------2-------2-------2-|
b|-----3-------3-------3-------3---|
g|---2-------2-------2-------2-----|
D|--0------0-------0-------0-------|
A|---------------------------------|
E|---------------------------------|

   MI
e|-------0-------0-------0-------0-|
b|-----0-------0-------0-------0---|
g|---1-------1-------1-------1-----|
D|---------------------------------|
A|---------------------------------|
E|-0-------0-------0-------0-------|

   FA#m
e|-------2-------2-------2-------2-|
b|-----2-------2-------2-------2---|
g|---2-------2-------2-------2-----|
D|---------4---------------4-------|
A|---------------------------------|
E|-2---------------2---------------|

   FA#m
e|-------2-------2-------2-------2-|
b|-----2-------2-------2-------2---|
g|---2-------2-------2-------2-----|
D|---------2---------------2-------|
A|---------------------------------|
E|-2---------------2---------------|

    RE
e|-------2-------2-------2-------2-|
b|-----3-------3-------3-------3---|
g|---2-------2-------2-------2-----|
D|--0------0-------0-------0-------|
A|---------------------------------|
E|---------------------------------|

   MI7
e|-------0-------0-------0-------0-|
b|-----3-------3-------3-------3---|
g|---1-------1-------1-------1-----|
D|---------------------------------|
A|---------------------------------|
E|-0-------0-------0-------0-------|

   FA#m
e|-------2-------2-------2-------2-|
b|-----2-------2-------2-------2---|
g|---2-------2-------2-------2-----|
D|---------4---------------4-------|
A|---------------------------------|
E|-2---------------2---------------|

    RE
e|-------2-------2-------2-------2-|
b|-----3-------3-------3-------3---|
g|---2-------2-------2-------2-----|
D|--0------0-------0-------0-------|
A|---------------------------------|
E|---------------------------------|

   DO#m
e|-------4-------4-------4-------4-|
b|-----5-------5-------5-------5---|
g|---6-------6-------6-------6-----|
D|---------------------------------|
A|-4-------4-------4-------4-------|
E|---------------------------------|

   SIm
e|-------2-------2-------2-------4-|
b|-----3-------3-------3-------5---|
g|---4-------4-------4-------6-----|
D|---------------------------------|
A|-2-------2-------2-------4-------|
E|---------------------------------|

   DO#7
e|-------4-------4-------4-------4-|
b|-----6-------6-------6-------6---|
g|---4-------4-------4-------4-----|
D|---------------------------------|
A|-4-------4-------4-------4-------|
E|---------------------------------|


    RE
e|-------2-------2-------2-------2-|
b|-----3-------3-------3-------3---|
g|---2-------2-------2-------2-----|
D|--0------0-------0-------0-------|
A|---------------------------------|
E|---------------------------------|

   DO#m
e|-------4-------4-------4-------4-|
b|-----5-------5-------5-------5---|
g|---6-------6-------6-------6-----|
D|---------------------------------|
A|-4-------4-------4-------4-------|
E|---------------------------------|

   SIm
e|-------2-------2-------2-------4-|
b|-----3-------3-------3-------5---|
g|---4-------4-------4-------6-----|
D|---------------------------------|
A|-2-------2-------2-------4-------|
E|---------------------------------|


   MI              MI7
e|-------0-------0-------0-------0-|
b|-----0-------0-------3-------3---|
g|---1-------1-------1-------1-----|
D|---------------------------------|
A|---------------------------------|
E|-0-------0-------0-------0-------|


FA#m         RE        MI        FA#m
  Vuela una lagrima, porque no estas aqui
           RE         MI7                      FA#m
  sufre mi corazon, llora porque le duele la soledad.
  RE          DO#m        SIm
  Sueña que vuelves barriendo las nostalgias y las
  DO#7
  penas.
  RE          DO#m        SIm
  Rompe el silencio, la voz de un alma triste que te
    MI   MI7
  espera.
         LA                       RE
  Yo que voy a hacer si muero de amor por ti
                MI7                      LA           DO#7
  ya nada es lo mismo, mi vida desde que tu no estas.

         FA#m
  Son tus ojos, que me han embrujado
        RE
  es tu boca, que me hace temblar
  SIm
  es tu risa que mueve montañas
            MI7
  no se que sera.

            LA                     RE
  Yo que voy a hacer si muero de amor por ti
                MI7                           LA     DO#7
  ya nada es lo mismo, mi vida desde que tu no estas.

         FA#m                            RE
  Y me tienes, soñando despierto en las noches
                       SIm               MI7    LA  DO#7
  mirando a la luna tratando de verte en su carita.


Solo de Quena:

   FA#m       RE
e|----9-9-9-|-------------|
b|----------|----10-10-10-|
g|-11-------|-11----------|
D|----------|-------------|
A|----------|-------------|
E|----------|-------------|

   MI            FA#m
e|-------------|------------|
b|----12-12-12-|----10-9----|
g|-13----------|-11------11-|
D|-------------|------------|
A|-------------|------------|
E|-------------|------------|


   FA#m       RE
e|----9-9-9-|-------------|
b|----------|----10-10-10-|
g|-11-------|-11----------|
D|----------|-------------|
A|----------|-------------|
E|----------|-------------|

   MI            FA#m
e|-------------|-----------|
b|----12-12-12-|-10-10--10-|
g|-13----------|-11-11--11-|
D|-------------|-----------|
A|-------------|-----------|
E|-------------|-----------|


FA#m      RE      MI          FA#m
Vuela una lagrima porque no estas aquí
            RE     MI7
se oye un lamento, cruza la noche intenta
   FA#m
llegar a ti.
RE        DO#m   SIm                        DO#7
Sube el deseo, aumenta en la distancia tu recuerdo
RE     DO#m     SIm                           M  i MI7
dale paloma, consuela un alma triste que te espera.

       LA                       RE
  Yo que voy a hacer si muero de amor por ti
                MI7                      LA           DO#7
  ya nada es lo mismo, mi vida desde que tu no estas.

         FA#m
  Son tus ojos, que me han embrujado
        RE
  es tu boca, que me hace temblar
  SIm
  es tu risa que mueve montañas
            MI7
  no se que sera.

            LA                     RE
  Yo que voy a hacer si muero de amor por ti
                MI7                           LA     DO#7
  ya nada es lo mismo, mi vida desde que tu no estas.

         FA#m                            RE
  Y me tienes, soñando despierto en las noches
                       SIm               MI7    LA  DO#7
  mirando a la luna tratando de verte en su carita.


         LA                 RE
  Yo que voy a hacer, yo que voy a hacer
     MI                 LA            (MI7)
  no se vivir desde que tu no estas.

            
            
Suggest correction
Creating personal tab
Creating personal tab
You can edit any tab online and save it as your Personal.

You can edit, replace or remove any tab part or add personal notes – all changes will be seen only by you.

Personal tabs can be accessed anytime from any device, even offline.
Learn more »
Give kudos to tab author, rate the tab!
1 2 3 4 5
comments
print report bad tab
guest
Wanna post a correction for this tab? Suggest correction