Oops, an error
Loading. Please wait.

Cómo Sufro Al Recordar tab

67 views 6 this week
no commentswrite comment
1 2 3 4 5
3 more votes to show rating
add to favorites
×
Save as Personal and add changes to this tab that will be seen only by you. Learn more ›
×
You can save this tab as Personal to edit and correct it or add notes. All changes will be seen only by you. Learn more »
launch autoscroll
font size
0
reset
how to read this tab
guitar tuner
edit
Autoscroll
slow
fast
+/-
esc
set tempo
stop
Intro:

              Bbm  Eb          G#  C#           Bbm
e|-----------------------------------------------------------|
B|-8b9r8-6-8-9-8-6-6----8h6---6-8-6--------6h4---4-6-4-------|
G|--------------------------8-------8-8--------6-------6-6---|
D|-----------------------------------------------------------|
A|-----------------------------------------------------------|
E|-----------------------------------------------------------|

  C7             Fm
e|---------------------------------------|
B|---8-8-8h9---------------------6-------|
G|-----------8-8-8-10----5h6p5-5---------|
D|---------------------------------------|
A|---------------------------------------|
E|---------------------------------------|

                        Bbm
  Ay como sufro al recordar
C7                           Fm
  que me quisiste hasta el final
                      Eb
  y sin embargo me aleje
                           C#
  sin darme cuenta de ese amor
                           C7    Fm
  que hoy en mi vida es dolor.

                         Bbm
  Quisiera verte una vez más
C7                    Fm
  para decirte la verdad
                       Eb
  y si perdonas mi maldad
                          C#
  yo sé que aun puedo lograr
          C7        Fm
  contigo mi felicidad.

                       Bbm
  Como quisiera verte ahora
Eb                     G#
  para decirte lo que siento
C#                            Bbm
  que sin tu amor me estoy muriendo
Gm                        C7    Fm
  y en tu recuerdo me sostengo.

                     Bbm
  Decirte que te necesito
Eb                       G#
  que quiero regresar contigo
C#                             Bbm
  que mi alma ya no encuentra alivio
C7                      Fm
  ay como sufro al recordar.

              Bbm  Eb          G#  C#           Bbm
e|-----------------------------------------------------------|
B|-8b9r8-6-8-9-8-6-6----8h6---6-8-6--------6h4---4-6-4-------|
G|--------------------------8-------8-8--------6-------6-6---|
D|-----------------------------------------------------------|
A|-----------------------------------------------------------|
E|-----------------------------------------------------------|

  C7             Fm
e|---------------------------------------|
B|---8-8-8h9---------------------6-------|
G|-----------8-8-8-10----5h6p5-5---------|
D|---------------------------------------|
A|---------------------------------------|
E|---------------------------------------|

?hoy me arrepiento de verdad, después que te hice tanto mal,
pero si me has de perdonar, dame esperanzas de volver,
de volver a estar contigo?

                         Bbm
  Sé que es difícil para ti
C7                     Fm
  tener de nuevo mi querer
                         Eb
  si tu lo aceptas otra vez
                          C#
  cuenta conmigo y cambiare
         C7      Fm
  te lo juro mi bien.

                       Bbm
  Como quisiera verte ahora
Eb                     G#
  para decirte lo que siento
C#                            Bbm
  que sin tu amor me estoy muriendo
Gm                        C7    Fm
  y en tu recuerdo me sostengo.

                     Bbm
  Decirte que te necesito
Eb                       G#
  que quiero regresar contigo
C#                             Bbm
  que mi alma ya no encuentra alivio
C7                      Fm     C7 Bbm Fm
  ay como sufro al recordar.
Suggest correction
Creating personal tab
Creating personal tab
You can edit any tab online and save it as your Personal.

You can edit, replace or remove any tab part or add personal notes – all changes will be seen only by you.

Personal tabs can be accessed anytime from any device, even offline.
Learn more »
Give kudos to tab author, rate the tab!
1 2 3 4 5
comments
print report bad tab
guest
Wanna post a correction for this tab? Suggest correction