Oops, an error
Loading. Please wait.

El Espíritu Del Oi! tab

833 views 3 this week
no commentswrite comment
1 2 3 4 5
3 more votes to show rating
add to favorites
×
Save as Personal and add changes to this tab that will be seen only by you. Learn more ›
×
You can save this tab as Personal to edit and correct it or add notes. All changes will be seen only by you. Learn more »
launch autoscroll
font size
0
reset
how to read this tab
guitar tuner
edit
Autoscroll
slow
fast
+/-
esc
set tempo
stop
Cuando el espiritu es lo único que nos hace fuertes.

Guitarra 1
|-------------------------------------------------------------------------|
|-------------------------------------------------------------------------|
|-6-----------------------------------------------------------------------|
|-6-----------------7------------------2-----------------9----------------|
|-4-----------------7------------------2-----------------9----------------|
|-------------------5------------------0-----------------7----------------|

Guitarra 2 
|-------------------------------------------------------------------------|
|-------------------------------------------------------------------------|
|-6-----------------------------------------------------------------------|
|-6-----------------7------------------9-----------------9----------------|
|-4---4--7-7-6-6-7--7-------7-7-6-6-4--9------7-7-6-6-6--9------7-7-6-6-7-|
|-------------------5---5--------------7---7-------------7---7------------|

Guitarra 1
|-------------------------------------------------------------------------|
|-------------------------------------------------------------------------|
|-6-----------------------------------------------------------------------|
|-6-----------------7------------------2-----------------9----------------|
|-4-----------------7------------------2-----------------9----------------|
|-------------------5------------------0-----------------7----------------|

Guitarra 2 
|-------------------------------------------------------------------------|
|-------------------------------------------------------------------------|
|-6-----------------------------------------------------------------------|
|-6-----------------7------------------9-----------------9----------------|
|-4---4--7-7-6-6-6--7-------7-7-6-6-7--9------7-7-6-6-6--9------7-7-6-6-7-|
|-------------------5---5--------------7---7-------------7---7------------|
___________________________________________________________________________

Guitarra 1
|----------------------------------------------------------------------|
|----------------------------------------------------------------------|
|-6--6-6-6-6-6-6--6--6-6--6--6-6--6------------------------------------|
|-6--6-6-6-6-6-6--6--6-6--6--6-6--6--7--7-7-7-7-7-7--7--7-7--7--7-7--7-|
|-4--4-4-4-4-4-4--4--4-4--4--4-4--4--7--7-7-7-7-7-7--7--7-7--7--7-7--7-|
|------------------------------------5--5-5-5-5-5-5--5--5-5--5--5-5--5-|
     [palm mute]     [pm]    [pm]       [palm mute]     [pm]    [pm]

Guitarra 2
|------------------------------------------------------|
|------------------------------------------------------| 
|------------------------------------------------------|        
|------------------------------------------------------| 
|-4--4-7-7-6--4--4-7-7-6-------7-7-6-7-9-7-6-7-6-6-7-6-| 
|-------------------------5--5-------------------------| 

Guitarra 1
|----------------------------------------------------------------------|
|----------------------------------------------------------------------|
|----------------------------------------------------------------------|
|-2--2-2-2-2-2-2--2--2-2--2--2-2--2--9--9-9-9-9-9-9--9--9-9--9--9-9--9-|
|-2--2-2-2-2-2-2--2--2-2--2--2-2--2--9--9-9-9-9-9-9--9--9-9--9--9-9--9-|
|-0--0-0-0-0-0-0--0--0-0--0--0-0--0--7--7-7-7-7-7-7--7--7-7--7--7-7--7-|
     [palm mute]     [pm]    [pm]       [palm mute]     [pm]    [pm]

Guitarra 2
|------------------------------------------------------| 
|------------------------------------------------------| 
|------------------------------------------------------| 
|------------------------------------------------------|  
|------7-7-6-------7-7-6-------7-7-6-7-9-7-6-7-6-6-7-6-|
|-9--9--------9--9--------9--9-------------------------|
(se repite 2 veces)
___________________________________________________________________________

Guitarra 1
|-----------------------------------------|
|-----------------------------------------|
|-6-6-6-6-6-6-6-6-------------------------|
|-6-6-6-6-6-6-6-6---------7-7-7-7-7-7-7-7-|
|-4-4-4-4-4-4-4-4---------7-7-7-7-7-7-7-7-|
|-------------------------5-5-5-5-5-5-5-5-|

Guitarra 2
|------------------------------------------------------|
|------------------------------------------------------| 
|------------------------------------------------------| 
|------------------------------------------------------| 
|-4--4-7-7-6--4--4-7-7-6-------7-7-6-7-9-7-6-7-6-6-7-6-| 
|-------------------------5--5-------------------------|

Guitarra 1
|------------------------------------------|
|------------------------------------------|
|------------------------------------------|
|-2--2-2-2-2-2-2-2---------9-9-9-9-9-9-9-9-|
|-2--2-2-2-2-2-2-2---------9-9-9-9-9-9-9-7-|
|-0--0-0-0-0-0-0-0---------7-7-7-7-7-7-7-7-|
     [palm mute](arriba abajo)     

Guitarra 2
|------------------------------------------------------| 
|------------------------------------------------------| 
|------------------------------------------------------| 
|------------------------------------------------------|  
|------7-7-6-------7-7-6-------7-7-6-7-9-7-6-7-6-6-7-6-|
|-9--9--------9--9--------9--9-------------------------|
(se repite 2 veces)
________________________________________________________________

Guitarra 1 y 2 Pasan los años.....
|--------------------------------------------------------------------|           
|--------------------------------------------------------------------|
|-6-6-6-6-6-6-6-4----------------------------------------------------|  X 2
|-6-6-6-6-6-6-6-4--7-7-7-7-7-7-7-7--2-2-2-2-2-2-2-2--9-9-9-9-9-9-9-9-|                                  
|-4-4-4-4-4-4-4-2--7-7-7-7-7-7-7-7--2-2-2-2-2-2-2-2--9-9-9-9-9-9-9-9-|                                        
|------------------5-5-5-5-5-5-5-5--0-0-0-0-0-0-0-0--7-7-7-7-7-7-7-7-| 
   Abre la puerta....
|--------------------------------------------------------------------|           
|--------------------------------------------------------------------|
|-6-6-6-6-6-6-6-6----------------------------------------------------|  X 2
|-6-6-6-6-6-6-6-6--7-7-7-7-7-7-7-7--2-2-2-2-2-2-2-2--9-9-9-9-9-9-9-9-|                                  
|-4-4-4-4-4-4-4-4--7-7-7-7-7-7-7-7--2-2-2-2-2-2-2-2--9-9-9-9-9-9-9-9-|                                        
|------------------5-5-5-5-5-5-5-5--0-0-0-0-0-0-0-0--7-7-7-7-7-7-7-7-|
____________________________________________________________________________

Guitarra 1
|----------------------------------------------------------------------|
|----------------------------------------------------------------------|
|-6--6-6-6-6-6-6--6--6-6--6--6-6--6------------------------------------|
|-6--6-6-6-6-6-6--6--6-6--6--6-6--6--7--7-7-7-7-7-7--7--7-7--7--7-7--7-|
|-4--4-4-4-4-4-4--4--4-4--4--4-4--4--7--7-7-7-7-7-7--7--7-7--7--7-7--7-|
|------------------------------------5--5-5-5-5-5-5--5--5-5--5--5-5--5-|
     [palm mute]     [pm]    [pm]       [palm mute]     [pm]    [pm]

Guitarra 2
|------------------------------------------------------|
|------------------------------------------------------| 
|------------------------------------------------------|        
|------------------------------------------------------| 
|-4--4-7-7-6--4--4-7-7-6-------7-7-6-7-9-7-6-7-6-6-7-6-| 
|-------------------------5--5-------------------------| 

Guitarra 1
|----------------------------------------------------------------------|
|----------------------------------------------------------------------|
|----------------------------------------------------------------------|
|-2--2-2-2-2-2-2--2--2-2--2--2-2--2--9--9-9-9-9-9-9--9--9-9--9--9-9--9-|
|-2--2-2-2-2-2-2--2--2-2--2--2-2--2--9--9-9-9-9-9-9--9--9-9--9--9-9--9-|
|-0--0-0-0-0-0-0--0--0-0--0--0-0--0--7--7-7-7-7-7-7--7--7-7--7--7-7--7-|
     [palm mute]     [pm]    [pm]       [palm mute]     [pm]    [pm]

Guitarra 2
|------------------------------------------------------| 
|------------------------------------------------------| 
|------------------------------------------------------| 
|------------------------------------------------------|  
|------7-7-6-------7-7-6-------7-7-6-7-9-7-6-7-6-6-7-6-|
|-9--9--------9--9--------9--9-------------------------|
(se repite 2 veces)
___________________________________________________________________________
Guitarra 1 y 2  Pero ahora tienes una vida mejor......
|--------------------------------------------------------------------|           
|--------------------------------------------------------------------|
|-6-6-6-6-6-6-6-4----------------------------------------------------|  X 2
|-6-6-6-6-6-6-6-4--7-7-7-7-7-7-7-7--2-2-2-2-2-2-2-2--9-9-9-9-9-9-9-9-|                                  
|-4-4-4-4-4-4-4-2--7-7-7-7-7-7-7-7--2-2-2-2-2-2-2-2--9-9-9-9-9-9-9-9-|                                        
|------------------5-5-5-5-5-5-5-5--0-0-0-0-0-0-0-0--7-7-7-7-7-7-7-7-| 
   Abre la puerta....
|--------------------------------------------------------------------|           
|--------------------------------------------------------------------|
|-6-6-6-6-6-6-6-6----------------------------------------------------|  X 2
|-6-6-6-6-6-6-6-6--7-7-7-7-7-7-7-7--2-2-2-2-2-2-2-2--9-9-9-9-9-9-9-9-|                                  
|-4-4-4-4-4-4-4-4--7-7-7-7-7-7-7-7--2-2-2-2-2-2-2-2--9-9-9-9-9-9-9-9-|                                        
|------------------5-5-5-5-5-5-5-5--0-0-0-0-0-0-0-0--7-7-7-7-7-7-7-7-|
_____________________________________________________________________________

Guitarra 1
|-------------------------------------------------------------------------|
|-------------------------------------------------------------------------|
|-6-----------------------------------------------------------------------|
|-6-----------------7------------------2-----------------9----------------|
|-4-----------------7------------------2-----------------9----------------|
|-------------------5------------------0-----------------7----------------|

Guitarra 2 
|-------------------------------------------------------------------------|
|-------------------------------------------------------------------------|
|-6-----------------------------------------------------------------------|
|-6-----------------7------------------9-----------------9----------------|
|-4---4--7-7-6-6-6--7-------7-7-6-6-4--9------7-7-6-6-6--9------7-7-6-6-6-|
|-------------------5---5--------------7---7-------------7---7------------|

Guitarra 1
|-------------------------------------------------------------------------|
|-------------------------------------------------------------------------|
|-6-----------------------------------------------------------------------|
|-6-----------------7------------------2-----------------9----------------|
|-4-----------------7------------------2-----------------9----------------|
|-------------------5------------------0-----------------7----------------|

Guitarra 2 
|-------------------------------------------------------------------------|
|-------------------------------------------------------------------------|
|-6-----------------------------------------------------------------------|
|-6-----------------7------------------9-----------------9----------------|
|-4---4--7-7-6-6-6--7-------7-7-6-6-6--9------7-7-6-6-6--9------7-7-6-6-7-|
|-------------------5---5--------------7---7-------------7---7------------|
___________________________________________________________________________________

Guitarra 1
|---------------------------------------------------------------------------------------------------------------|
|---------------------------------------------------------------------------------------------------------------|
|-6---6-6---6---6-6---6---6---6---6-6---6---6-6---6---6---------------------------------------------------------|
|-6---6-6---6---6-6---6---6---6---6-6---6---6-6---6---6---7---7-7---7---7-7---7---7---7---7-7---7---7-7---7---7-|
|-4---4-4---4---4-4---4---4---4---4-4---4---4-4---4---4---7---7-7---7---7-7---7---7---7---7-7---7---7-7---7---7-|
|---------------------------------------------------------5---5-5---5---5-5---5---5---5---5-5---5---5-5---5---5-|
      [pm]      [pm]     [pm]     [pm]      [pm]     [pm]     [pm]      [pm]     [pm]     [pm]      [pm]     [pm]   
  
Guitarra 2
|-----------------------------------------------------------------|
|-----------------------------------------------------------------|
|-----------------------------------------------------------------|
|-----------------------------------------------------------------|
|-4-4-4-7-7-7-6-6-4-4-4-7-7-7-6/4-------7-7-7-6-7-9-7-6-7-6-6-7-6-|
|---------------------------------5-5-5---------------------------|

Guitarra 1
|---------------------------------------------------------------------------------------------------------------| 
|---------------------------------------------------------------------------------------------------------------| 
|---------------------------------------------------------------------------------------------------------------| 
|-2---2-2---2---2-2---2---2---2---2-2---2---2-2---2---2---9---9-9---9---9-9---9---9---9---9-9---9---9-9---9---9-| 
|-2---2-2---2---2-2---2---2---2---2-2---2---2-2---2---2---9---9-9---9---9-9---9---9---9---9-9---9---9-9---9---9-| 
|-0---0-0---0---0-0---0---0---0---0-0---0---0-0---0---0---7---7-7---7---7-7---7---7---7---7-7---7---7-7---7---7-| 
      [pm]      [pm]     [pm]     [pm]      [pm]     [pm]     [pm]      [pm]     [pm]     [pm]      [pm]     [pm]

Guitarra 2
|-----------------------------------------------------------------|
|-----------------------------------------------------------------|
|-----------------------------------------------------------------|
|-----------------------------------------------------------------|
|-------7-7-7-6-6-------7-7-7-6-6-------7-7-7-6-7-9-7-6-7-6-6-7-6-|
|-9-9-9-----------9-9-9-----------9-9-9---------------------------|
_________________________________________________________________________

Guitarra 1
|--------------------------------------------------------------------|
|--------------------------------------------------------------------|
|-6-6-6-6-6-6-6-6-6-6-6-6-6-6-6-6------------------------------------|
|-6-6-6-6-6-6-6-6-6-6-6-6-6-6-6-6--7-7-7-7-7-7-7-7-7-7-7-7-7-7-7-7-7-|
|-4-4-4-4-4-4-4-4-4-4-4-4-4-4-4-4--7-7-7-7-7-7-7-7-7-7-7-7-7-7-7-7-7-|
|----------------------------------5-5-5-5-5-5-5-5-5-5-5-5-5-5-5-5-5-|
                    [ p  a  l  m      m  u  t  e ]

Guitarra 2
|-----------------------------------------------------------------|
|-----------------------------------------------------------------|
|-----------------------------------------------------------------|
|-----------------------------------------------------------------|
|-4-4-4-7-7-7-6-6-4-4-4-7-7-7-6/4-------7-7-7-6-7-9-7-6-7-6-6-7-6-|
|---------------------------------5-5-5---------------------------|

Guitarra 1
|------------------------------------------------------------------|
|------------------------------------------------------------------|
|------------------------------------------------------------------|
|-2-2-2-2-2-2-2-2-2-2-2-2-2-2-2-2--9-9-9-9-9-9-9-9-9-9-9-9-9-9-9-9-|
|-2-2-2-2-2-2-2-2-2-2-2-2-2-2-2-2--9-9-9-9-9-9-9-9-9-9-9-9-9-9-9-9-|
|-0-0-0-0-0-0-0-0-0-0-0-0-0-0-0-0--7-7-7-7-7-7-7-7-7-7-7-7-7-7-7-7-|

Guitarra 2
|-----------------------------------------------------------------|
|-----------------------------------------------------------------|
|-----------------------------------------------------------------|
|-----------------------------------------------------------------|
|-------7-7-7-6-6-------7-7-7-6-6-------7-7-7-6-7-9-7-6-7-6-6-7-6-|
|-9-9-9-----------9-9-9-----------9-9-9---------------------------|
__________________________________________________________________________________


Guitarra 1  eeeeeeeeeeeeeeeeeeeeeehhhhhh!!!!!!!! 
|--------------------------------------------------------------------------------------------------------|
|--------------------------------------------------------------------------------------------------------|
|-6-6-6-6-6-6-6-6-6-6-6-6--------------------------------------------------------------------------------|
|-6-6-6-6-6-6-6-6-6-6-6-6--7-7-7-7-7-7-7-7-7-7-7-7-7-7--2-2-2-2-2-2-2-2-2-2-2-2--9-9-9-9-9-9-9-9-9-9-9-9-|
|-4-4-4-4-4-4-4-4-4-4-4-4--7-7-7-7-7-7-7-7-7-7-7-7-7-7--2-2-2-2-2-2-2-2-2-2-2-2--9-9-9-9-9-9-9-9-9-9-9-9-|
|--------------------------5-5-5-5-5-5-5-5-5-5-5-5-5-5--0-0-0-0-0-0-0-0-0-0-0-0--7-7-7-7-7-7-7-7-7-7-7-7-|

Guitarra 2
|---------------------------------------------------------------------------------------------------|
|---------------------------------------------------------------------------------------------------|
|-6-6-6-6-6--6---------------------------------------------------------------------------8-9-10-9-8-|
|-6-6-6-6-6--6-------------7-7-7-7-7--7-7-7--6--4-4-2-2-2-2-2--2-6-7-9-7-6--9-9-9-9-9--9------------|
|-4-4-4-4-4--4-7-7-6-7-7-7-7-7-7-7-7--7-------------2-2-2-2-2--2------------------------------------|
|--------------------------5-5-5-5-5--5-------------0-0-0-0-0--0------------------------------------|

Guitarra 1
|-----------------------------------------------------------------------------------------------------------|
|-----------------------------------------------------------------------------------------------------------|
|-6-6-6-6-6-6-6-6-6-6-6-6-----------------------------------------------------------------------------------|
|-6-6-6-6-6-6-6-6-6-6-6-6---7-7-7-7-7-7-7-7-7-7-7-7-7-7---2-2-2-2-2-2-2-2-2-2-2-2---9-9-9-9-9-9-9-9-9-9-9-9-|
|-4-4-4-4-4-4-4-4-4-4-4-4---7-7-7-7-7-7-7-7-7-7-7-7-7-7---2-2-2-2-2-2-2-2-2-2-2-2---9-9-9-9-9-9-9-9-9-9-9-9-|
|---------------------------5-5-5-5-5-5-5-5-5-5-5-5-5-5---0-0-0-0-0-0-0-0-0-0-0-0---7-7-7-7-7-7-7-7-7-7-7-7-|

Guitarra 2
|------------------------------------------------------------------------------------------------------------------------------|
|------------------------------------------------------------------------------------------------------------------------------|
|-6-6--9-9-9-8-8-6-6--9-9-9-8-6------9-9-9-8-9-11-9-8-9-8-8-9-8------9-9-9-8-8-------9-9-9-8-8------9-9-9-8-9-11-9-8-9-8-8-9-8-|
|-------------------------------7-7-----------------------------9-9-------------9-9------------9-9-----------------------------|
|------------------------------------------------------------------------------------------------------------------------------|
|------------------------------------------------------------------------------------------------------------------------------|

Guitarra 1
|-----------------------------------------------------------------------------------------------------------|
|-----------------------------------------------------------------------------------------------------------|
|-6-6-6-6-6-6-6-6-6-6-6-6-----------------------------------------------------------------------------------|
|-6-6-6-6-6-6-6-6-6-6-6-6---7-7-7-7-7-7-7-7-7-7-7-7-7-7---2-2-2-2-2-2-2-2-2-2-2-2---9-9-9-9-9-9-9-9-9-9-9-9-|
|-4-4-4-4-4-4-4-4-4-4-4-4---7-7-7-7-7-7-7-7-7-7-7-7-7-7---2-2-2-2-2-2-2-2-2-2-2-2---9-9-9-9-9-9-9-9-9-9-9-9-|
|---------------------------5-5-5-5-5-5-5-5-5-5-5-5-5-5---0-0-0-0-0-0-0-0-0-0-0-0---7-7-7-7-7-7-7-7-7-7-7-7-|

Guitarra 2
|------------------------------------------------------------------------------------------------------------------------------|
|------------------------------------------------------------------------------------------------------------------------------|
|-6-6--9-9-9-8-8-6-6--9-9-9-8-6------9-9-9-8-9-11-9-8-9-8-8-9-8------9-9-9-8-8-------9-9-9-8-8------9-9-9-8-9-11-9-8-9-8-8-9-8-|

            
            
Suggest correction
Creating personal tab
Creating personal tab
You can edit any tab online and save it as your Personal.

You can edit, replace or remove any tab part or add personal notes – all changes will be seen only by you.

Personal tabs can be accessed anytime from any device, even offline.
Learn more »
Give kudos to tab author, rate the tab!
1 2 3 4 5
comments
print report bad tab
guest
Wanna post a correction for this tab? Suggest correction