Oops, an error
Loading. Please wait.

¿qué Paso En El Lieja? tab

57 views 1 this week
no commentswrite comment
1 2 3 4 5
3 more votes to show rating
add to favorites
×
Save as Personal and add changes to this tab that will be seen only by you. Learn more ›
×
You can save this tab as Personal to edit and correct it or add notes. All changes will be seen only by you. Learn more »
launch autoscroll
font size
0
reset
how to read this tab
guitar tuner
edit
Autoscroll
slow
fast
+/-
esc
set tempo
stop
INTRO:
1 GUITARRA
E|--------------------------|--------------------------|
B|--------------------------|--------------------------|
G|--------------------------|--------------------------|
D|----7-7--5-7-8--7-5-7-5-3-|----7-7--5-7-8--9-8-7-8-7-|
A|--5-----------------------|--5-----------------------|
E|--------------------------|--------------------------|

E|--------------------------|--------------------------|
B|--------------------------|--------------------------|
G|--------------------------|--------------------------|
D|----7-7--5-7-8--7-5-7-5-3-|-------3--3---3-----2-0---|
A|--5-----------------------|--3-3-------3---0-0-----3-|
E|--------------------------|--------------------------|

LUEGO SE REPITE Y LA 2° GUITARRA ACOMPAÑA CON LOS ACORDES:

D5 C5 A5

HASTA K EMPIESA A CANTAR.

VERSO:

D5
CUANDO ALGUIEN CUENTA LO QUE LE INTERESA
                               F6
SE ABRE CAMINO A UN MUNDO ANORMAL
C5                  A5       C5        E6 F6
EALZANDO SUS PROEZAS, ENCUBRIENDO LA VERDAD
D5
CUENTAN HISTORIAS, BATALLAS VENCIDAS
                       F6
LLEVAN LA POSE DEL GANADOR
C5           A5               C5      E6 F6
PERO YA NADIE RECUERDA LO QUE AQUEL DIA PASÓ

CORO:
D5                          E6 F6                        E6 C5
¿QUÉ PASO EN EL LIEJA?, ¿POR QUÉ DE ESE DÍA NADIE QUIERE HABLAR?
                       A5            C5        A5 F6
¿CUÁL ES EL PROBLEMA?, HACED MEMORIA INTENTAD RECORDAR

VERSO: CON LOS MISMO ACORDES

¿HASTA QUE PUNTO LLEGA EL CINISMO, QUE OS CORROMPE Y NO OS DEJA VER?
¿DÓNDE COÑO ESTA EL ORGULLO?, ¿QUÉ SABRÉIS LO QUE ES VENCER?
¿QUÉ PASO ESE DIA TRISTE DEL QUE NO QUEREIS HABLAR?
¿QUÉ PASO ESE DIA TRISTE QUE NO QUEREIS RECORDAR?

CORO: CON LOS MISMO ACORDES

¿QUÉ PASO EN EL LIEJA?, ¿POR QUÉ DE ESE DÍA NADIE QUIERE HABLAR?
¿CUÁL ES EL PROBLEMA?, HACED MEMORIA INTENTAD RECORDAR

SOLO:

E|-----------------------------------|-----------------------------------
B|----10--10-10--8-10-11-10-8-10-8-6-|---10-10-10--8-10-11-13-11-10h11p10
G|--7--------------------------------|-7---------------------------------
D|-----------------------------------|-----------------------------------
A|-----------------------------------|-----------------------------------
E|-----------------------------------|-----------------------------------

E|-----------------------------------|------------------------------
B|----10--10-10--8-10-11-10-8-10-8-6-|-----6-6---6------------------
G|--7--------------------------------|-5-5-----5--------9--7-5------
D|-----------------------------------|--------------7-7-------------
A|-----------------------------------|------------------------------
E|-----------------------------------|------------------------------

VERSO:

HASTA QUÉ PUNTO LLEGA VUESTRO CINISMO
VUESTRA OBSESIÓN POR ENCUBRIR LA REALIDAD
ABRE LOS OJOS Y MIRA EL DICCIONARIO, EL SIGNIFICADO DE LA SINCERIDAD
VUESTRAS MENTIRAS ESTÁN SIENDO DESTAPADAS
YA TOCA FONDO VUESTRO MUNDO SURREAL
OS ENFRENTAIS AL PEOR DE LOS ENEMIGOS
OS ENFRENTAIS A LA JODIDA REALIDAD

CORO:
¿QUÉ PASO EN EL LIEJA?, ¿POR QUÉ DE ESE DÍA NADIE QUIERE HABLAR?
¿CUÁL ES EL PROBLEMA?

A5                          F5 G5
PERMITEME QUE TE REFRESQUE LA MEMORIA
A5                          F5 G5
MUCHAS PREGUNTAS A LAS QUE HAY QUE RESPONDER
A5                          F5 G5
VUESTROS HERIDOS FUERON MÁS DE DIECISIETE
A5                          F5 G5
Y NOSOTROS SEGUIMOS HOY EN PIE
A5                          F5 G5
EN LA CABEZA SIEMPRE QUEDA EN PIE EL ORGULLO
A5                          F5 G5
PUES LA UNIDAD ES NUESTRA FORMA DE ACTUAR
A5                          F5 G5
HOY SE NIVELA LA RUEDA DE LA BALANZA
A5                F5 G5
GANA 2-0 LA PUTA N.S.A

CORO:
¿QUÉ PASO EN EL LIEJA?, ¿POR QUÉ DE ESE DÍA NADIE QUIERE HABLAR?
¿CUÁL ES EL PROBLEMA? AAAAAAAAAAAAAAAHH AAH AHAAA

A5 C5 G5 A5 G5 X2
F5 C5 D5 C5 A#5 A5

F5                     C5
SOMOS LOS QUE ESTAMOS, NUESTRA FUERZA ES LA AMISTAD
G5                   A5         G5
LA UNIDAD ES NUESTRA FORMA DE ACTUAR
F5
NUESTRA ARMA, EL ORGULLO
C5                 D5  C5
NUESTRA LUCHA, LA DE CLASES
A5                G5 A5 G5
NUESTRAS ZONAS SON LOS BARES Y LAS CALLES

AHÍ TERMINA NOS VEMOS HASTA LA PROXIMA.
PKK_APOSTATA@

            
            
Suggest correction
Creating personal tab
Creating personal tab
You can edit any tab online and save it as your Personal.

You can edit, replace or remove any tab part or add personal notes – all changes will be seen only by you.

Personal tabs can be accessed anytime from any device, even offline.
Learn more »
Give kudos to tab author, rate the tab!
1 2 3 4 5
comments
print report bad tab
guest
Wanna post a correction for this tab? Suggest correction