Oops, an error
Loading. Please wait.

Cafe En Días De Guerra tab

26 views 1 this week
no commentswrite comment
1 2 3 4 5
3 more votes to show rating
add to favorites
×
Save as Personal and add changes to this tab that will be seen only by you. Learn more ›
×
You can save this tab as Personal to edit and correct it or add notes. All changes will be seen only by you. Learn more »
launch autoscroll
font size
0
reset
how to read this tab
guitar tuner
edit
Autoscroll
slow
fast
+/-
esc
set tempo
stop
Esta es otra cancion de Norecomendable, espero que los arpegios estean bien
deanle su voto porfavor.

Algunas aclaraciones:
4/5 arrastrado
7"h" arrastrar de arriba abajo.
7"p" es el sonido que se da en la cancion.

  E        E*2              E*3         E*4        E*5     E
e-|--4/5-12------0----4/5-12----12/14-12------------------------|
B-|---------10-9-------------10-------------7h--5-4-5-----5-0---|
G-|-----------------------------------------------------6-------|
D-|-------------------------------------------------------------|
A-|-------------------------------------------------------------|
E-|-------------------------------------------------------------|
     E*2       E*3          E*4    E*5
e-|-------------------------12-----12/14-12---------------------|
B-|--7h-7/5-5--7h-7/5-5--------10-------------------------------|
G-|-------------------------------------------------------------|
D-|-------------------------------------------------------------|
A-|-------------------------------------------------------------|
E-|-------------------------------------------------------------|
E                           A
 Ya no hay sábados que esperen
                       DO#m
 ya no hay miedo a fracasar
                            E*2
 ya no encuentro las canciones
          E*4         E
 para poderte recordar

RIf
e-|----5--4--4/5---7--------|
B-|----5--4--4/5---7--------|
G-|-------------------------|
D-|-------------------------|
A-|-------------------------|
E-|-------------------------|
E                    A
 Te llevaste los poemas
                   DO#m
 me dejaste en soledad
                       E*2
y en estos días de guerra
          E*4          E
no te quiero incomodar

CORO:
E               A
 Luego te llamaré
                    E
 preguntarás qué pasa
                        DO#m
 aquí no me encuentro bien
                    E*2
 abusa de mi confianza
                A
luego tú me dirás
                  E
tengo algo que hacer
                               DO#m
no te preocupes siempre hay tiempo
         E*2     E*4  E
para tomarnos un café

E - E*2 - E*3 - E*4 - E*5
   E        E*2              E*3         E*4        E*5
e-|--4/5-12------0----4/5-12----12/14------8/9-11-11-9----------|
B-|---------10-9-------------10---------------------------------|
G-|-------------------------------------------------------------|
D-|-------------------------------------------------------------|
A-|-------------------------------------------------------------|
E-|-------------------------------------------------------------|
        E             E*2       E*3          E*4    E*5   E
e-|-----7p-5p-4p-0p---7p-5p-4p-5p-4p-5p-4p-5p-4p-5p-0p-2p-0p----|
B-|-------------------------------------------------------------|
G-|-------------------------------------------------------------|
D-|-------------------------------------------------------------|
A-|-------------------------------------------------------------|
E-|-------------------------------------------------------------|

Ya no hay promesas que valgan
ya no hay tiempo para más
las mariposas ya vuelan
porque faltan colorear

Luego te llamaré
preguntarás qué pasa
aquí no me encuentro bien
abusa de mi confianza
luego tú me dirás
tengo algo que hacer
no te preocupes siempre hay tiempo
para tomarnos un café

E                          A
Y aunque se acabe el universo
                 DO#m
y tú quieras volver
                                E*2
no te preocupes siempre hay tiempo
           E*4        E
para tomarnos un café

e-|---0-2/4-7--4-2-0-----|
B-|----------------------|
G-|----------------------|
D-|----------------------|
A-|----------------------|
E-|----------------------|

  E*2    E*3    E*4      E*5
   0     0      0       0
   0     0      0       0
   2     4      5       6
   4     6      7       7
   4     6      7       7
   0     x      x       x

            
            
Suggest correction
Creating personal tab
Creating personal tab
You can edit any tab online and save it as your Personal.

You can edit, replace or remove any tab part or add personal notes – all changes will be seen only by you.

Personal tabs can be accessed anytime from any device, even offline.
Learn more »
Give kudos to tab author, rate the tab!
1 2 3 4 5
comments
print report bad tab
guest
Wanna post a correction for this tab? Suggest correction