Oops, an error
Loading. Please wait.

Me Estoy Acostumbrando Tanto A Que No Estés chords

version 1
version 1

Whole song

12 views 1 this week
no commentswrite comment
1 2 3 4 5
3 more votes to show rating
add to favorites
×
Save as Personal and add changes to this tab that will be seen only by you. Learn more ›
×
You can save this tab as Personal to edit and correct it or add notes. All changes will be seen only by you. Learn more »
launch autoscroll
font size
0
reset
transpose
0
reset
display chords
guitar tuner
edit
Autoscroll
slow
fast
+/-
esc
set tempo
stop
Strumming
There is no strumming pattern for this song yet. and get +5 IQ
INTRO
 **Arpegio
           C                    Em
1---------------------------|-----------------------------|
2--1------3-----1-----0-----|--0------3-----1------0------|
3----0------0-----0-----0---|----0------0-----0------0----|
4------2------2-----3-----3-|------2------2-----2------2--|
5--3------3-----3-----3-----|-----------------------------|
6---------------------------|--0------0-----0------0------|

   Am
1--------------------------|
2-1-----3-----1-----0------|
3---2-----2-----2-----2----|
4-----2-----2-----2-----2--|
5-0-----0-----0-----0------|
6--------------------------|

F G   (arpegiados)


**Arpegio
C                    Em
resulta facil despertarme cada dia
     Am
dibujarme la sonrisa
F               G
ponerme la cruz al alba

**rasgueo
       Am
y respirar
    F             G               Am
en medio de este corazon podrido
    F              G          C
en medio de esta brujula sin mar
                    Am(1ra--3--)
y algo me viene a recordar
F           G
ya no volvera

**Arpegio
C                     Em
puedo ver las olas empacandome la vida
Am
avivando los recuerdos
F               G
esperando algun milagro

**rasgueo
        Am
que mas da
   F            G                   Am
mi tiempo si no hay con quien perderlo
     F         G                 C
mi vida si no hay por quien morir
                  Am(1ra--3--)
esto se puede resumir
 F             G
ya no volvera

*Arpegio
        C           B*            Am      G
y me estoy acostumbrando a que no estes
   F               G
que cuando te tenga hare de cuenta que no estas


           C                    Em
1---------------------------|-----------------------------|
2--1------3-----1-----0-----|--0------3-----1------0------|
3----0------0-----0-----0---|----0------0-----0------0----|
4------2------2-----3-----3-|------2------2-----2------2--|
5--3------3-----3-----3-----|-----------------------------|
6---------------------------|--0------0-----0------0------|

   Am
1--------------------------|
2-1-----3-----1-----0------|
3---2-----2-----2-----2----|
4-----2-----2-----2-----2--|
5-0-----0-----0-----0------|
6--------------------------|

F G   (arpegiados)   C


   B*
1--0--
2--1--
3--0--
4--0--
5--2--
6-----

Am(1ra--3--)
pisar el 3r traste en la primera cuerda para darle
un efecto


PD.
pal frei que la pidio aita

            
            
Suggest correction
Creating personal tab
Creating personal tab
You can edit any tab online and save it as your Personal.

You can edit, replace or remove any tab part or add personal notes – all changes will be seen only by you.

Personal tabs can be accessed anytime from any device, even offline.
Learn more »
Give kudos to tab author, rate the tab!
1 2 3 4 5
comments
print report bad tab
guest
Wanna post a correction for this tab? Suggest correction