Oops, an error
Loading. Please wait.

Niños De La Calle chords

by Notoken
11 views 1 this week
no commentswrite comment
1 2 3 4 5
3 more votes to show rating
add to favorites
×
Save as Personal and add changes to this tab that will be seen only by you. Learn more ›
×
You can save this tab as Personal to edit and correct it or add notes. All changes will be seen only by you. Learn more »
launch autoscroll
font size
0
reset
transpose
0
reset
simplify chords
display chords
guitar tuner
edit
Autoscroll
slow
fast
+/-
esc
set tempo
stop
Strumming
There is no strumming pattern for this song yet. and get +5 IQ
NIÑOS DE LA CALLE
Grupo  :NoToKen
De     :JuAn mag102@
10:49 p.m. 30/06/2003


Intro :bajox2
G-|------------------------------------------------------|
D-|------------------------------------------------------|
A-|---------------------5-5-5--5-7-9-5-9-----------------|
E-|--0-0-0--0-1-2-0-2------------------------------------|


guitarra :
    E5 F#5 G5  E5 G5 G5 G5    D5 E5 G#5  D5 G#5 G#5 G#5
E-|------------------------------------------------------|
B-|------------------------------------------------------|
G-|---------------------------7--9--11---7--11--11--11---|
D-|--2--4--5---2--5--5--5-----7--9--11---7--11--11--11---|
A-|--2--4--5---2--5--5--5-----5--7---9---5---9---9---9---|
E-|--0--2--3---0--3--3--3--------------------------------|


E5 F#5 G5  E5 G5 G5 G5 
Esto es una fantasia 
D5 E5 G#5  D5 G#5 G#5 G#5
mundo lleno de porqueria
E5 F#5 G5  E5 G5 G5 G5
en otro tiempos se comia 
D5 E5 G#5  D5 G#5 G#5 G#5
y alcanzaba para todo el dia


niño de la calle anda a trabajar
haciendo lo que sea 
niños de la calle aprendes a robar
aprendes cosas malas ya quitate de aqui


coro:

trabajar para comer 

niños de la calle 

hay que trabajar

trabajar para comer 

niños de la calle 

hay que trabajar

guitarra :x2 
    E5 F#5 G5  E5 G5 G5 G5    D5 E5 G#5  D5 G#5 G#5 G#5
E-|------------------------------------------------------|
B-|------------------------------------------------------|
G-|---------------------------7--9--11---7--11--11--11---|
D-|--2--4--5---2--5--5--5-----7--9--11---7--11--11--11---|
A-|--2--4--5---2--5--5--5-----5--7---9---5---9---9---9---|
E-|--0--2--3---0--3--3--3--------------------------------|


E5 F#5 G5  E5 G5 G5 G5 
Esto es una fantasia 
D5 E5 G#5  D5 G#5 G#5 G#5
mundo lleno de porqueria
E5 F#5 G5  E5 G5 G5 G5
mama parada en una esquina
D5 E5 G#5  D5 G#5 G#5 G#5
papa borracho todo el dia


niños de la calle 

no tienes valor

nadie de ti sabe 

te buscan por ladron

no les importa nada

nada de tu vida

te ponen mala cara

sale ya de aqui


coro:2

trabajar para comer 

niños de la calle 

hay que trabajar

trabajar para comer 

niños de la calle 

hay que trabajar


Gracias Julio Salame Guitarrista de notoken
y al resto de muchachos por hacer tan buen hard-core

            
            
Suggest correction
Creating personal tab
Creating personal tab
You can edit any tab online and save it as your Personal.

You can edit, replace or remove any tab part or add personal notes – all changes will be seen only by you.

Personal tabs can be accessed anytime from any device, even offline.
Learn more »
Give kudos to tab author, rate the tab!
1 2 3 4 5
comments
print report bad tab
guest
Wanna post a correction for this tab? Suggest correction