Oops, an error
Loading. Please wait.

Imagínate El Aire tab

14 views 1 this week
no commentswrite comment
1 2 3 4 5
3 more votes to show rating
add to favorites
×
Save as Personal and add changes to this tab that will be seen only by you. Learn more ›
×
You can save this tab as Personal to edit and correct it or add notes. All changes will be seen only by you. Learn more »
launch autoscroll
font size
0
reset
how to read this tab
guitar tuner
edit
Autoscroll
slow
fast
+/-
esc
set tempo
stop
INTRO:
  Em

(Ambas guitarras)

   Guitarra Rítmica          Guitarra Solista
   Em           *?
e--0--0----0-0--0----0-0--|----------------------
B--0--0----0-0--0----0-0--|--3h5--5--5--6--5--5--
G--0--0----0-0--0----0-0--|----------------------
D--2--2----2-2--3----2-2--|----------------------
A--2--2----2-2--3----2-2--|----------------------
E--0--0----0-0--0----0-0--|----------------------


La otra parte de la intro.

   Em         *1    Em  *1    Em  *1    Em
e--0--0--0--0--0----0-0--0----0-0--0----0--0----
B--0--0--0--0--0----0-0--0----0-0--0----0--0----
G--0--0--0--0--0----0-0--0----0-0--0----0--0----
D--2--2--2--2--3----2-2--3----2-2--3----2--2----
A--2--2--2--2--3----2-2--3----2-2--3----2--2----
E--0--0--0--0--0----0-0--0----0-0--0----0--0----


Pre-verso: "Yeahhh!"...

   Em  G  F#m  G  F#m
e--0---3---2---3---2---
B--0---0---2---0---2---
G--0---0---2---0---2---
D--2---0---4---0---4---
A--2---2---4---2---4---
E--0---3---2---3---2---

Los pequeños riffs que toca la guitarra solista en los versos:

       Riff *1                   Riff *2
e------------------------|---------------------
B------------------------|------------------3--
G--4h5--4--2--4p2--------|--4h5--4--2--4h5-----
D------------------5--4--|---------------------
A------------------------|---------------------
E------------------------|---------------------


Em              G
Hace ya mucho tiempo
      F#m            G  F#m
que dejaste esta ciudad
Em                    G
y ahora me encuentro solo
      F#m          G  F#m
intentando comprender
Em              G
qué motivos trajeron
      F#m        G  F#m
esta cruel realidad.
Em                     G
Cuando el cielo es de todos
         F#m         G  F# 
si lo intentas alcanzar.


Bm            Cm
Imagínate el aire
              Bm
sentado a tu lado.
              G
Imagínate el aire
F#m
sin respirar,
Bm                Cm
si el espejo del alma
              Bm
es tu oscuridad;
              G
Imagínate el aire
F#m
el aire.


Em                  G
Y ahora vienes de nuevo
      F#m          G  F#m
intentándolo arreglar
Em                 G
pienso que ya no puedo
     F#m          G  F#m
demorar esta ocasión.
Em              G
Se retuerce mi carne
       F#m         G  F#m
de pensar en el adiós.
Em                G
El final de los tiempos
    F#m         G  F#m
empezó aquella vez.


Bm            Cm
Imagínate el aire
              Bm
sentado a tu lado.
              G
Imagínate el aire
F#m
sin respirar,
Bm                Cm
si el espejo del alma
              Bm
es tu oscuridad;
              G
Imagínate el aire
F#m
el aire.

            
            
Suggest correction
Creating personal tab
Creating personal tab
You can edit any tab online and save it as your Personal.

You can edit, replace or remove any tab part or add personal notes – all changes will be seen only by you.

Personal tabs can be accessed anytime from any device, even offline.
Learn more »
Give kudos to tab author, rate the tab!
1 2 3 4 5
comments
print report bad tab
guest
Wanna post a correction for this tab? Suggest correction