Oops, an error
Loading. Please wait.

Viaje A Tí chords

by NPI
1 view 1 this week
no commentswrite comment
1 2 3 4 5
3 more votes to show rating
add to favorites
×
Save as Personal and add changes to this tab that will be seen only by you. Learn more ›
×
You can save this tab as Personal to edit and correct it or add notes. All changes will be seen only by you. Learn more »
launch autoscroll
font size
0
reset
transpose
0
reset
simplify chords
display chords
guitar tuner
edit
Autoscroll
slow
fast
+/-
esc
set tempo
stop
Strumming
There is no strumming pattern for this song yet. and get +5 IQ
Aquí pongo mi 1ra transcripcion, es de un grupo
no muy conocido de rock ?punk? (soy de los que piensan que el punk
murió pero estos tipos son buenos en su negocio y son un tripeo)
Riff 1
E|----------------------|
B|----------------------|
G|----------------------|
D|----------------------| X 2
A|------5-2-2-2-3-2-3-2-|
E|-3-3-0----------------|

Riff 2 (aunque son quintas)
E|-------------------------|
B|-------------------------|
G|-------------------------|
D|-5-5-5-------------4-4-4-| X 2
A|-3-3-3-7-5-7-5-5-5-2-2-2-|
E|-------5-5-5-3-3-3-------|

Riff 1
Trata de pensar/Trata de olvidar
C5
No es nada fácil
A5
El simple hecho
G5            B5
De dejarlo atrás

Riff 1
Todo lo pasado/Todo sigue ahí
C5
Esperando
A5
El ultimo
G5             B5
Momento para salir

Aquí se tocan los acordes del coro pero no se canta

C5 A5 G5-B5 C5 D5 G5-B5

G5           B5
Quisiste intentar
G5           B5
Pero al comenzar
C5         A5
No tomaste en cuenta todo
G5           B5
Lo que hice por viajar
G5           B5
Yo considerando
G5           B5
No me opuse mal
C5          A5
Entendí que yo no vine
G5          B5
A pasarla mal

Coro
C5          A5     G5-B5
No me hagas sentir mal
C5          D5     G5-B5
Todo seguirá igual
C5          A5     G5-B5
Seguro estaré allí
C5          A5     G5
Porque viaje a ti

Aquí viene el solo

E|----------------------------------------------|
B|----------------------------------------------|
G|-------7-4-4-4-5-4-5-4--------7-4-4-4-5-4-5-4-|
D|--5-5-5-----------------5-5-5-----------------|
A|----------------------------------------------|
E|----------------------------------------------|

E|---------------------------|
B|----5-4-----5-4-----5-4----|
G|--------7-5-----7-5--------|
D|---------------------------|
A|---------------------------|
E|---------------------------|

E|-----------------------------10-7-7-7-8-7-8-7--|
B|-----4-4-4-5-4-5-4----8-8-8--------------------|
G|-5-7-------------------------------------------|
D|-----------------------------------------------|
A|-----------------------------------------------|
E|-----------------------------------------------|

E|------10-7-7-7-8-7-8-7----|
B|8-8-8---------------------|
G|--------------------------|
D|--------------------------|
A|--------------------------|
E|--------------------------|


E|--8-7------8-7---------7/15-15-15-15-------|
B|------10-8-----10-8-10---------------------|
G|-------------------------------------------|
D|-------------------------------------------|
A|-------------------------------------------|
E|-------------------------------------------|

Coro
C5          A5     G5-B5
No me hagas sentir mal
C5          D5     G5-B5
Todo seguirá igual
C5          A5     G5-B5
Seguro estaré allí
C5          A5     G5
Porque viaje a ti

Riff 1
Por mi todo esta bien/La próxima vez será
C5              A5
Espero que esta vez no pierdas
G5          B5
La oportunidad
G5           B5
Olvida lo pasado
G5           B5
Para mi todo es igual
C5              A5
Piensa en la manera
G5             A5-G5
De volverme a contentar

Se repite coro

Esto es todo, la canción es muy sencilla
(la saque yo solito), dudas, insultos, amenazas
de muerte y felicitaciones a mi correo please.
Pienso montar el álbum ?Con todos Los Juguetes?
de nPi en el bit torrent, estén pendientes? Hasta logooo!!!

            
            
Suggest correction
Creating personal tab
Creating personal tab
You can edit any tab online and save it as your Personal.

You can edit, replace or remove any tab part or add personal notes – all changes will be seen only by you.

Personal tabs can be accessed anytime from any device, even offline.
Learn more »
Give kudos to tab author, rate the tab!
1 2 3 4 5
comments
print report bad tab
guest
Wanna post a correction for this tab? Suggest correction