Oops, an error
Loading. Please wait.

Aún Te Amo tab

29 views 1 this week
no commentswrite comment
1 2 3 4 5
3 more votes to show rating
add to favorites
×
Save as Personal and add changes to this tab that will be seen only by you. Learn more ›
×
You can save this tab as Personal to edit and correct it or add notes. All changes will be seen only by you. Learn more »
launch autoscroll
font size
0
reset
how to read this tab
guitar tuner
edit
Autoscroll
slow
fast
+/-
esc
set tempo
stop
intro:

--entre '#' no se toca con la viola, pero pueden hacerlo porque suena bien--
            ###      ---------      ###

1|----------------------------------|
2|---------------7-7----------------|
3|-9---9-9-7---7-----9-7-9---9-9-7--|
4|---9---------------------9--------|
5|----------------------------------|
6|----------------------------------|
            ###      ---------      ###            
(x2)


1|---------------8----7------------------8----8---8----7----------------|
2|----8----10------10--8------8----10------10--10---10------------------|
3|--9---9-----11----------------9-----11--------------------------------|
4|----------------------------------------------------------------------|
5|----------------------------------------------------------------------|
6|----------------------------------------------------------------------|

(x2)


--esto tampoco se toca con la viola, pero asi pueden tocar el tema completo--
            ###      ---------      ###
1|--7-7-7-7-7-10-7--------------------------------------------|
2|----------------10-8-10-8-7-----------------------7-7-------|
3|----------------------------9-9-------7-9-7-7-7-7-----7-9---|
4|----------------------------------9-9-----------------------|
5|------------------------------------------------------------|
6|------------------------------------------------------------|
            ###       ---------      ###
(x2) 


1|--------------7h8-8-8-8-7-8-7-7----------------8-8-8-8------------------------|
2|-------7-8-10-------------------8-------7-8-10---------7-8-7------------------|
3|-----9--------------------------------9----------------------9---------7-8-9--|
4|---9--------------------------------9------------------------------9-9--------|
5|------------------------------------------------------------------------------|
6|------------------------------------------------------------------------------|

(x2)


Em 
Desde aquel momento en que te conoci
                      D
todo enamorado me quede de ti
C                        Em
y sin darme cuenta te empece a querer
                           B  Em
sin pensar siquiera que iba a suceder


Todo era muy lindo cuando comenzó
pero con el tiempo tu amor se gastó
y buscaste en otro lo que no hubo en mi
no olvido aquel dia que con el te vi

       D       C                             Em
y aun te amo, y aunque pase el tiempo te seguire amando
       D       C                             B    Em  
y aun te amo, y aunque pase el tiempo te seguire amando,Amando


repite TODO


AGUANTE LA NUEVA LUNA!!!
Cualquier duda, o para intercambiar tabs, al mail
-- El MaGo --
Suggest correction
Creating personal tab
Creating personal tab
You can edit any tab online and save it as your Personal.

You can edit, replace or remove any tab part or add personal notes – all changes will be seen only by you.

Personal tabs can be accessed anytime from any device, even offline.
Learn more »
Give kudos to tab author, rate the tab!
1 2 3 4 5
comments
print report bad tab
guest
Wanna post a correction for this tab? Suggest correction