Oops, an error
Loading. Please wait.

Compañera chords

33 views 1 this week
no commentswrite comment
1 2 3 4 5
2 more votes to show rating
add to favorites
×
Save as Personal and add changes to this tab that will be seen only by you. Learn more ›
×
You can save this tab as Personal to edit and correct it or add notes. All changes will be seen only by you. Learn more »
launch autoscroll
font size
0
reset
transpose
0
reset
display chords
guitar tuner
edit
Autoscroll
slow
fast
+/-
esc
set tempo
stop
Strumming
There is no strumming pattern for this song yet. and get +5 IQ
(lento)
B
Necesito una compañera

que me ame que en verdad me quiera


intro:

1|---------------------------------------------------------------|-----------------------------------12---12--|
2|----------------------9------------------------------12-11-9---|------------9-------------------------------|
3|-8-9-11-11-11-11-11-8---11-11-11-11--8-9-11-11-11-11--------11-|-8-9-11-9-8----11-9-8-9---11-9-8-9---9----9-|
4|---------------------------------------------------------------|--------------------------------------------|
5|---------------------------------------------------------------|--------------------------------------------|
6|---------------------------------------------------------------|--------------------------------------------|

1|----------------------------------------12-11-9-------9-----12s14-14s16-16-14-12-11-9--|
2|8-8-8-8-12-11-9--9------------------------------12-11---11-----------------------------|
3|---------------11-11---8-9-11-9-8-11---------------------------------------------------|
4|---------------------------------------------------------------------------------------|
5|---------------------------------------------------------------------------------------|
6|---------------------------------------------------------------------------------------|


(ahora toca normal)

B
Necesito una compañera

que me ame que en verdad me quiera
               E
que me ayude a vivir
                B
y que nunca nunca sepa mentir
            F#
Que conozca el dolor

que valore el amor.

1|---2----------|
2|---2-5-4-2----|
3|---3-------4--|      (x2)
4|-4------------|    
5|--------------|
6|--------------|

Necesito una compañera
que me ame que en verdad me quiera
que no tenga maldad
que en su alma tenga HUMANIDAD
Que me sepa querer
sin temor a perder.


estribillo:

         B
Porque ya he sufrido tanto tanto

que hoy no puedo detener mi llanto,
            F#
y no puedo callar mi soledad
      E    F#
aay que soledad.
     E    F#                                  B       F#
La feeelicidad donde esta yo la quiero encontrar

(x2)


repite intro
repite estribillo dos veces


AGUANTE LA NUEVA LUNA!!!
Cualquier duda, o para intercambiar tabs, al mail
-- El MaGo --

            
            
Suggest correction
Creating personal tab
Creating personal tab
You can edit any tab online and save it as your Personal.

You can edit, replace or remove any tab part or add personal notes – all changes will be seen only by you.

Personal tabs can be accessed anytime from any device, even offline.
Learn more »
Give kudos to tab author, rate the tab!
1 2 3 4 5
comments
print report bad tab
guest
Wanna post a correction for this tab? Suggest correction