Oops, an error
Loading. Please wait.

Cuento Te Extraño tab

17 views 1 this week
no commentswrite comment
1 2 3 4 5
3 more votes to show rating
add to favorites
×
Save as Personal and add changes to this tab that will be seen only by you. Learn more ›
×
You can save this tab as Personal to edit and correct it or add notes. All changes will be seen only by you. Learn more »
launch autoscroll
font size
0
reset
how to read this tab
guitar tuner
edit
Autoscroll
slow
fast
+/-
esc
set tempo
stop
Intro: 

Guitarra: X2

e------------8----------------------6--------------/
B--------8-9---9-8--9-8-6------6-8----8-6--8-6-----/
G-----10--------------------8------------------8---/
D--10---------------------8------------------------/
A--------------------------------------------------/
E--------------------------------------------------/


e------------------------------------8-8-8--6-4--3-4-6-4---/
B----------------------------------------------------------/
G------6-5--6-5-----------6-5--6-5-------------------------/
D---8------------8-----8-----------------------------------/
A-8-----------------8--------------------------------------/
E----------------------------------------------------------/

Despues juega con las siguientes notas: Re#-Fam


 FAm                              RE#
Eh venido a decirte  que estoy enamorado
                    DO                 FAm
que no aguanto un segundo sin estar a tu lado
                     SOL#                   RE#
te extraño por las noches si no estas tu conmigo
                 DO              FAm
extraño yo tus besos extraño tu cariño
            LA#m                 DO
no consigo borrar los momentos vividos
             LA#m                DO
extraño mas y mas no consigo el olvido
                  FAm
por eso estoy aquiiiiiii

e-------------------------------------------/----------------------------------/
B-------------------8------10-10-10-10------/-------------------8--------------/
G------10-8----8-8------8---------------10--/----10-8------8-8-----8-8-8-7-6---/    X2
D--10-------10--------8---------------------/10--------10----------------------/     
A-------------------------------------------/----------------------------------/
E-------------------------------------------/----------------------------------/


ESTRIBILLO X2

   FAm                       RE#
Y yooooooo, y yo te sigo amandoooooooh

por eso vine hasta aqui para decirte mi amor
              FAm
cuento te extraño

y yo te sigo amando porque no puedo vivir
si tu no estas junto a mi vuelve a mi lado.


DESPUES EMPIEZA TODO DE NUEVO

Esta transcripcion se la quiero dedicar a Tatiana  por que 
estoy decidido a decirle que la amo.

            
            
Suggest correction
Creating personal tab
Creating personal tab
You can edit any tab online and save it as your Personal.

You can edit, replace or remove any tab part or add personal notes – all changes will be seen only by you.

Personal tabs can be accessed anytime from any device, even offline.
Learn more »
Give kudos to tab author, rate the tab!
1 2 3 4 5
comments
print report bad tab
guest
Wanna post a correction for this tab? Suggest correction